  0
SECTION
  2
HEADER
  9
$EXTMIN
 10
1.264569
 20
3.364858
  9
$EXTMAX
 10
7.000027
 20
7.157163
  9
$LTSCALE
 40
0.046767
  9
$PDMODE
 70
    35
  9
$PDSIZE
 40
0.037413
  0
ENDSEC
  0
SECTION
  2
TABLES
  0
TABLE
  2
LTYPE
 70
     9
  0
LTYPE
  2
CONTINUOUS
 70
    64
  3
Solid line
 72
    65
 73
     0
 40
0.000000
  0
LTYPE
  2
DASHED
 70
    64
  3
__ __ __ __ __ __ __ __ __ __ __ __ __ __ __
 72
    65
 73
     2
 40
0.000351
 49
0.000234
 49
-0.000117
  0
LTYPE
  2
HIDDEN
 70
    64
  3
 _ _ _ _ _ _ _ _ _ _ _ _ _ _ _ _ _ _ _ _ _ _
 72
    65
 73
     2
 40
0.000175
 49
0.000117
 49
-0.000058
  0
LTYPE
  2
CENTER
 70
    64
  3
____ _ ____ _ ____ _ ____ _ ____ _ ____ _ ____
 72
    65
 73
     4
 40
0.000935
 49
0.000585
 49
-0.000117
 49
0.000117
 49
-0.000117
  0
LTYPE
  2
PHANTOM
 70
    64
  3
_____ _ _ _____ _ _ _____ _ _ _____ _ _ ____
 72
    65
 73
     6
 40
0.001169
 49
0.000585
 49
-0.000117
 49
0.000117
 49
-0.000117
 49
0.000117
 49
-0.000117
  0
LTYPE
  2
DOT
 70
    64
  3
...............................................
 72
    65
 73
     2
 40
0.000117
 49
0.000000
 49
-0.000117
  0
LTYPE
  2
DASHDOT
 70
    64
  3
__ . __ . __ . __ . __ . __ . __ . __ . __ . __
 72
    65
 73
     4
 40
0.000468
 49
0.000234
 49
-0.000117
 49
0.000000
 49
-0.000117
  0
LTYPE
  2
BORDER
 70
    64
  3
__ __ . __ __ . __ __ . __ __ . __ __ . __ __
 72
    65
 73
     6
 40
0.000818
 49
0.000234
 49
-0.000117
 49
0.000234
 49
-0.000117
 49
0.000000
 49
-0.000117
  0
LTYPE
  2
DIVIDE
 70
    64
  3
__ . . __ . . __ . . __ . . __ . . __ . . __
 72
    65
 73
     6
 40
0.000585
 49
0.000234
 49
-0.000117
 49
0.000000
 49
-0.000117
 49
0.000000
 49
-0.000117
  0
LTYPE
  2
DOTDOT
 70
    64
  3
 . .  . .  . .  . .  . .  . . 
 72
    65
 73
     5
 40
0.000257
 49
-0.000117
 49
0.000000
 49
-0.000117
 49
0.000000
 49
-0.000117
  0
ENDTAB
  0
TABLE
  2
STYLE
 70
     0
  0
ENDTAB
  0
TABLE
  2
LAYER
 70
     3
  0
LAYER
  2
FOREGROUND
 70
    64
 62
     7
  6
CONTINUOUS
  0
LAYER
  2
BACKGROUND
 70
    65
 62
    -7
  6
CONTINUOUS
  0
LAYER
  2
0
 70
    64
 62
     7
  6
CONTINUOUS
  0
ENDTAB
  0
ENDSEC
  0
SECTION
  2
ENTITIES
  0
POLYLINE
  8
0
 62
     4
  6
CONTINUOUS
 66
     1
 40
0.000000
 41
0.000000
  0
VERTEX
  8
0
 62
     4
  6
CONTINUOUS
 10
5.424927
 20
4.072437
  0
VERTEX
  8
0
 62
     4
  6
CONTINUOUS
 10
5.595625
 20
4.367534
  0
VERTEX
  8
0
 62
     4
  6
CONTINUOUS
 10
5.787369
 20
4.700512
  0
VERTEX
  8
0
 62
     4
  6
CONTINUOUS
 10
5.992206
 20
5.057809
  0
VERTEX
  8
0
 62
     4
  6
CONTINUOUS
 10
6.203124
 20
5.425863
  0
VERTEX
  8
0
 62
     4
  6
CONTINUOUS
 10
6.412170
 20
5.790642
  0
VERTEX
  8
0
 62
     4
  6
CONTINUOUS
 10
6.612332
 20
6.138586
  0
VERTEX
  8
0
 62
     4
  6
CONTINUOUS
 10
6.795189
 20
6.456131
  0
VERTEX
  8
0
 62
     4
  6
CONTINUOUS
 10
6.954196
 20
6.729716
  0
SEQEND
  8
0
  0
POLYLINE
  8
0
 62
     4
  6
CONTINUOUS
 66
     1
 40
0.000000
 41
0.000000
  0
VERTEX
  8
0
 62
     4
  6
CONTINUOUS
 10
6.954196
 20
6.729716
  0
VERTEX
  8
0
 62
     4
  6
CONTINUOUS
 10
6.988335
 20
6.810154
  0
VERTEX
  8
0
 62
     4
  6
CONTINUOUS
 10
6.998624
 20
6.886852
  0
VERTEX
  8
0
 62
     4
  6
CONTINUOUS
 10
6.987400
 20
6.957937
  0
VERTEX
  8
0
 62
     4
  6
CONTINUOUS
 10
6.958405
 20
7.020136
  0
VERTEX
  8
0
 62
     4
  6
CONTINUOUS
 10
6.914444
 20
7.072047
  0
VERTEX
  8
0
 62
     4
  6
CONTINUOUS
 10
6.859727
 20
7.111331
  0
VERTEX
  8
0
 62
     4
  6
CONTINUOUS
 10
6.797060
 20
7.135650
  0
VERTEX
  8
0
 62
     4
  6
CONTINUOUS
 10
6.729716
 20
7.143133
  0
SEQEND
  8
0
  0
POLYLINE
  8
0
 62
     4
  6
CONTINUOUS
 66
     1
 40
0.000000
 41
0.000000
  0
VERTEX
  8
0
 62
     4
  6
CONTINUOUS
 10
6.729716
 20
7.143133
  0
VERTEX
  8
0
 62
     4
  6
CONTINUOUS
 10
6.415444
 20
7.143133
  0
VERTEX
  8
0
 62
     4
  6
CONTINUOUS
 10
6.049729
 20
7.143133
  0
VERTEX
  8
0
 62
     4
  6
CONTINUOUS
 10
5.648939
 20
7.143133
  0
VERTEX
  8
0
 62
     4
  6
CONTINUOUS
 10
5.228975
 20
7.143133
  0
VERTEX
  8
0
 62
     4
  6
CONTINUOUS
 10
4.805737
 20
7.143133
  0
VERTEX
  8
0
 62
     4
  6
CONTINUOUS
 10
4.396529
 20
7.143133
  0
VERTEX
  8
0
 62
     4
  6
CONTINUOUS
 10
4.016317
 20
7.143133
  0
VERTEX
  8
0
 62
     4
  6
CONTINUOUS
 10
3.682871
 20
7.143133
  0
SEQEND
  8
0
  0
POLYLINE
  8
0
 62
     4
  6
CONTINUOUS
 66
     1
 40
0.000000
 41
0.000000
  0
VERTEX
  8
0
 62
     4
  6
CONTINUOUS
 10
3.682871
 20
7.143133
  0
VERTEX
  8
0
 62
     4
  6
CONTINUOUS
 10
3.723558
 20
7.079530
  0
VERTEX
  8
0
 62
     4
  6
CONTINUOUS
 10
3.760036
 20
7.024813
  0
VERTEX
  8
0
 62
     4
  6
CONTINUOUS
 10
3.791369
 20
6.978047
  0
VERTEX
  8
0
 62
     4
  6
CONTINUOUS
 10
3.817559
 20
6.938763
  0
VERTEX
  8
0
 62
     4
  6
CONTINUOUS
 10
3.839071
 20
6.906026
  0
VERTEX
  8
0
 62
     4
  6
CONTINUOUS
 10
3.854972
 20
6.879837
  0
VERTEX
  8
0
 62
     4
  6
CONTINUOUS
 10
3.865728
 20
6.859259
  0
VERTEX
  8
0
 62
     4
  6
CONTINUOUS
 10
3.871808
 20
6.843826
  0
SEQEND
  8
0
  0
POLYLINE
  8
0
 62
     4
  6
CONTINUOUS
 66
     1
 40
0.000000
 41
0.000000
  0
VERTEX
  8
0
 62
     4
  6
CONTINUOUS
 10
3.871808
 20
6.843826
  0
VERTEX
  8
0
 62
     4
  6
CONTINUOUS
 10
3.962068
 20
6.843826
  0
VERTEX
  8
0
 62
     4
  6
CONTINUOUS
 10
4.205254
 20
6.843826
  0
VERTEX
  8
0
 62
     4
  6
CONTINUOUS
 10
4.558342
 20
6.843826
  0
VERTEX
  8
0
 62
     4
  6
CONTINUOUS
 10
4.978774
 20
6.843826
  0
VERTEX
  8
0
 62
     4
  6
CONTINUOUS
 10
5.423524
 20
6.843826
  0
VERTEX
  8
0
 62
     4
  6
CONTINUOUS
 10
5.849568
 20
6.843826
  0
VERTEX
  8
0
 62
     4
  6
CONTINUOUS
 10
6.214348
 20
6.843826
  0
VERTEX
  8
0
 62
     4
  6
CONTINUOUS
 10
6.475773
 20
6.843826
  0
SEQEND
  8
0
  0
POLYLINE
  8
0
 62
     4
  6
CONTINUOUS
 66
     1
 40
0.000000
 41
0.000000
  0
VERTEX
  8
0
 62
     4
  6
CONTINUOUS
 10
6.475773
 20
6.843826
  0
VERTEX
  8
0
 62
     4
  6
CONTINUOUS
 10
6.484659
 20
6.840553
  0
VERTEX
  8
0
 62
     4
  6
CONTINUOUS
 10
6.500559
 20
6.832602
  0
VERTEX
  8
0
 62
     4
  6
CONTINUOUS
 10
6.519734
 20
6.819040
  0
VERTEX
  8
0
 62
     4
  6
CONTINUOUS
 10
6.538908
 20
6.800333
  0
VERTEX
  8
0
 62
     4
  6
CONTINUOUS
 10
6.554809
 20
6.776950
  0
VERTEX
  8
0
 62
     4
  6
CONTINUOUS
 10
6.563694
 20
6.748890
  0
VERTEX
  8
0
 62
     4
  6
CONTINUOUS
 10
6.561824
 20
6.716621
  0
VERTEX
  8
0
 62
     4
  6
CONTINUOUS
 10
6.546858
 20
6.680611
  0
SEQEND
  8
0
  0
POLYLINE
  8
0
 62
     4
  6
CONTINUOUS
 66
     1
 40
0.000000
 41
0.000000
  0
VERTEX
  8
0
 62
     4
  6
CONTINUOUS
 10
6.546858
 20
6.680611
  0
VERTEX
  8
0
 62
     4
  6
CONTINUOUS
 10
6.425265
 20
6.471096
  0
VERTEX
  8
0
 62
     4
  6
CONTINUOUS
 10
6.270935
 20
6.202188
  0
VERTEX
  8
0
 62
     4
  6
CONTINUOUS
 10
6.094157
 20
5.892126
  0
VERTEX
  8
0
 62
     4
  6
CONTINUOUS
 10
5.905220
 20
5.560550
  0
VERTEX
  8
0
 62
     4
  6
CONTINUOUS
 10
5.714413
 20
5.225701
  0
VERTEX
  8
0
 62
     4
  6
CONTINUOUS
 10
5.532023
 20
4.906285
  0
VERTEX
  8
0
 62
     4
  6
CONTINUOUS
 10
5.369275
 20
4.621477
  0
VERTEX
  8
0
 62
     4
  6
CONTINUOUS
 10
5.235990
 20
4.389514
  0
SEQEND
  8
0
  0
POLYLINE
  8
0
 62
     4
  6
CONTINUOUS
 66
     1
 40
0.000000
 41
0.000000
  0
VERTEX
  8
0
 62
     4
  6
CONTINUOUS
 10
5.235990
 20
4.389514
  0
VERTEX
  8
0
 62
     4
  6
CONTINUOUS
 10
5.243940
 20
4.375484
  0
VERTEX
  8
0
 62
     4
  6
CONTINUOUS
 10
5.265453
 20
4.339942
  0
VERTEX
  8
0
 62
     4
  6
CONTINUOUS
 10
5.295384
 20
4.288966
  0
VERTEX
  8
0
 62
     4
  6
CONTINUOUS
 10
5.330459
 20
4.230976
  0
VERTEX
  8
0
 62
     4
  6
CONTINUOUS
 10
5.365066
 20
4.172517
  0
VERTEX
  8
0
 62
     4
  6
CONTINUOUS
 10
5.394997
 20
4.121542
  0
VERTEX
  8
0
 62
     4
  6
CONTINUOUS
 10
5.416509
 20
4.085999
  0
VERTEX
  8
0
 62
     4
  6
CONTINUOUS
 10
5.424927
 20
4.072437
  0
SEQEND
  8
0
  0
POLYLINE
  8
0
 62
     1
  6
CONTINUOUS
 66
     1
 40
0.000000
 41
0.000000
  0
VERTEX
  8
0
 62
     1
  6
CONTINUOUS
 10
2.687677
 20
3.899400
  0
VERTEX
  8
0
 62
     1
  6
CONTINUOUS
 10
2.557666
 20
3.898933
  0
VERTEX
  8
0
 62
     1
  6
CONTINUOUS
 10
2.430461
 20
3.898933
  0
VERTEX
  8
0
 62
     1
  6
CONTINUOUS
 10
2.306529
 20
3.898933
  0
VERTEX
  8
0
 62
     1
  6
CONTINUOUS
 10
2.188210
 20
3.898933
  0
VERTEX
  8
0
 62
     1
  6
CONTINUOUS
 10
2.077373
 20
3.898933
  0
VERTEX
  8
0
 62
     1
  6
CONTINUOUS
 10
1.975422
 20
3.898933
  0
VERTEX
  8
0
 62
     1
  6
CONTINUOUS
 10
1.885162
 20
3.898933
  0
VERTEX
  8
0
 62
     1
  6
CONTINUOUS
 10
1.807530
 20
3.898933
  0
SEQEND
  8
0
  0
POLYLINE
  8
0
 62
     1
  6
CONTINUOUS
 66
     1
 40
0.000000
 41
0.000000
  0
VERTEX
  8
0
 62
     1
  6
CONTINUOUS
 10
1.807530
 20
3.898933
  0
VERTEX
  8
0
 62
     1
  6
CONTINUOUS
 10
1.765907
 20
3.904545
  0
VERTEX
  8
0
 62
     1
  6
CONTINUOUS
 10
1.734574
 20
3.920445
  0
VERTEX
  8
0
 62
     1
  6
CONTINUOUS
 10
1.712126
 20
3.943829
  0
VERTEX
  8
0
 62
     1
  6
CONTINUOUS
 10
1.698563
 20
3.972824
  0
VERTEX
  8
0
 62
     1
  6
CONTINUOUS
 10
1.692951
 20
4.005093
  0
VERTEX
  8
0
 62
     1
  6
CONTINUOUS
 10
1.694354
 20
4.037829
  0
VERTEX
  8
0
 62
     1
  6
CONTINUOUS
 10
1.702305
 20
4.068695
  0
VERTEX
  8
0
 62
     1
  6
CONTINUOUS
 10
1.716335
 20
4.095820
  0
SEQEND
  8
0
  0
POLYLINE
  8
0
 62
     1
  6
CONTINUOUS
 66
     1
 40
0.000000
 41
0.000000
  0
VERTEX
  8
0
 62
     1
  6
CONTINUOUS
 10
1.716335
 20
4.095820
  0
VERTEX
  8
0
 62
     1
  6
CONTINUOUS
 10
1.880486
 20
4.378290
  0
VERTEX
  8
0
 62
     1
  6
CONTINUOUS
 10
2.092338
 20
4.743070
  0
VERTEX
  8
0
 62
     1
  6
CONTINUOUS
 10
2.331316
 20
5.153681
  0
VERTEX
  8
0
 62
     1
  6
CONTINUOUS
 10
2.575905
 20
5.574113
  0
VERTEX
  8
0
 62
     1
  6
CONTINUOUS
 10
2.805062
 20
5.967888
  0
VERTEX
  8
0
 62
     1
  6
CONTINUOUS
 10
2.998208
 20
6.298528
  0
VERTEX
  8
0
 62
     1
  6
CONTINUOUS
 10
3.134298
 20
6.530022
  0
VERTEX
  8
0
 62
     1
  6
CONTINUOUS
 10
3.192757
 20
6.626362
  0
SEQEND
  8
0
  0
POLYLINE
  8
0
 62
     1
  6
CONTINUOUS
 66
     1
 40
0.000000
 41
0.000000
  0
VERTEX
  8
0
 62
     1
  6
CONTINUOUS
 10
3.192757
 20
6.626362
  0
VERTEX
  8
0
 62
     1
  6
CONTINUOUS
 10
3.214269
 20
6.653019
  0
VERTEX
  8
0
 62
     1
  6
CONTINUOUS
 10
3.236717
 20
6.670790
  0
VERTEX
  8
0
 62
     1
  6
CONTINUOUS
 10
3.260101
 20
6.679676
  0
VERTEX
  8
0
 62
     1
  6
CONTINUOUS
 10
3.283484
 20
6.680611
  0
VERTEX
  8
0
 62
     1
  6
CONTINUOUS
 10
3.305932
 20
6.674531
  0
VERTEX
  8
0
 62
     1
  6
CONTINUOUS
 10
3.326977
 20
6.661904
  0
VERTEX
  8
0
 62
     1
  6
CONTINUOUS
 10
3.346151
 20
6.643665
  0
VERTEX
  8
0
 62
     1
  6
CONTINUOUS
 10
3.363455
 20
6.620750
  0
SEQEND
  8
0
  0
POLYLINE
  8
0
 62
     1
  6
CONTINUOUS
 66
     1
 40
0.000000
 41
0.000000
  0
VERTEX
  8
0
 62
     1
  6
CONTINUOUS
 10
3.363455
 20
6.620750
  0
VERTEX
  8
0
 62
     1
  6
CONTINUOUS
 10
3.511237
 20
6.365404
  0
VERTEX
  8
0
 62
     1
  6
CONTINUOUS
 10
3.694563
 20
6.049262
  0
VERTEX
  8
0
 62
     1
  6
CONTINUOUS
 10
3.900336
 20
5.693835
  0
VERTEX
  8
0
 62
     1
  6
CONTINUOUS
 10
4.116865
 20
5.320638
  0
VERTEX
  8
0
 62
     1
  6
CONTINUOUS
 10
4.331524
 20
4.950714
  0
VERTEX
  8
0
 62
     1
  6
CONTINUOUS
 10
4.532153
 20
4.606511
  0
VERTEX
  8
0
 62
     1
  6
CONTINUOUS
 10
4.705189
 20
4.308140
  0
VERTEX
  8
0
 62
     1
  6
CONTINUOUS
 10
4.839877
 20
4.078049
  0
SEQEND
  8
0
  0
POLYLINE
  8
0
 62
     1
  6
CONTINUOUS
 66
     1
 40
0.000000
 41
0.000000
  0
VERTEX
  8
0
 62
     1
  6
CONTINUOUS
 10
4.839877
 20
4.078049
  0
VERTEX
  8
0
 62
     1
  6
CONTINUOUS
 10
4.856245
 20
4.038297
  0
VERTEX
  8
0
 62
     1
  6
CONTINUOUS
 10
4.857648
 20
4.002755
  0
VERTEX
  8
0
 62
     1
  6
CONTINUOUS
 10
4.848295
 20
3.972356
  0
VERTEX
  8
0
 62
     1
  6
CONTINUOUS
 10
4.830991
 20
3.946635
  0
VERTEX
  8
0
 62
     1
  6
CONTINUOUS
 10
4.809479
 20
3.926057
  0
VERTEX
  8
0
 62
     1
  6
CONTINUOUS
 10
4.788434
 20
3.911092
  0
VERTEX
  8
0
 62
     1
  6
CONTINUOUS
 10
4.770662
 20
3.901739
  0
VERTEX
  8
0
 62
     1
  6
CONTINUOUS
 10
4.760374
 20
3.898933
  0
SEQEND
  8
0
  0
POLYLINE
  8
0
 62
     1
  6
CONTINUOUS
 66
     1
 40
0.000000
 41
0.000000
  0
VERTEX
  8
0
 62
     1
  6
CONTINUOUS
 10
4.760374
 20
3.898933
  0
VERTEX
  8
0
 62
     1
  6
CONTINUOUS
 10
4.710801
 20
3.898933
  0
VERTEX
  8
0
 62
     1
  6
CONTINUOUS
 10
4.654213
 20
3.898933
  0
VERTEX
  8
0
 62
     1
  6
CONTINUOUS
 10
4.592482
 20
3.898933
  0
VERTEX
  8
0
 62
     1
  6
CONTINUOUS
 10
4.525138
 20
3.898933
  0
VERTEX
  8
0
 62
     1
  6
CONTINUOUS
 10
4.454052
 20
3.898933
  0
VERTEX
  8
0
 62
     1
  6
CONTINUOUS
 10
4.379693
 20
3.898933
  0
VERTEX
  8
0
 62
     1
  6
CONTINUOUS
 10
4.302996
 20
3.898933
  0
VERTEX
  8
0
 62
     1
  6
CONTINUOUS
 10
4.224896
 20
3.899400
  0
SEQEND
  8
0
  0
POLYLINE
  8
0
 62
     1
  6
CONTINUOUS
 66
     1
 40
0.000000
 41
0.000000
  0
VERTEX
  8
0
 62
     1
  6
CONTINUOUS
 10
4.224896
 20
3.899400
  0
VERTEX
  8
0
 62
     1
  6
CONTINUOUS
 10
4.216946
 20
3.870873
  0
VERTEX
  8
0
 62
     1
  6
CONTINUOUS
 10
4.208995
 20
3.840942
  0
VERTEX
  8
0
 62
     1
  6
CONTINUOUS
 10
4.199642
 20
3.808205
  0
VERTEX
  8
0
 62
     1
  6
CONTINUOUS
 10
4.188886
 20
3.774066
  0
VERTEX
  8
0
 62
     1
  6
CONTINUOUS
 10
4.177194
 20
3.737588
  0
VERTEX
  8
0
 62
     1
  6
CONTINUOUS
 10
4.163632
 20
3.698772
  0
VERTEX
  8
0
 62
     1
  6
CONTINUOUS
 10
4.148666
 20
3.658085
  0
VERTEX
  8
0
 62
     1
  6
CONTINUOUS
 10
4.131830
 20
3.615995
  0
SEQEND
  8
0
  0
POLYLINE
  8
0
 62
     1
  6
CONTINUOUS
 66
     1
 40
0.000000
 41
0.000000
  0
VERTEX
  8
0
 62
     1
  6
CONTINUOUS
 10
4.131830
 20
3.615995
  0
VERTEX
  8
0
 62
     1
  6
CONTINUOUS
 10
4.250150
 20
3.615527
  0
VERTEX
  8
0
 62
     1
  6
CONTINUOUS
 10
4.368002
 20
3.615527
  0
VERTEX
  8
0
 62
     1
  6
CONTINUOUS
 10
4.483515
 20
3.615527
  0
VERTEX
  8
0
 62
     1
  6
CONTINUOUS
 10
4.596223
 20
3.615527
  0
VERTEX
  8
0
 62
     1
  6
CONTINUOUS
 10
4.704721
 20
3.615527
  0
VERTEX
  8
0
 62
     1
  6
CONTINUOUS
 10
4.808076
 20
3.615527
  0
VERTEX
  8
0
 62
     1
  6
CONTINUOUS
 10
4.904882
 20
3.615527
  0
VERTEX
  8
0
 62
     1
  6
CONTINUOUS
 10
4.994674
 20
3.615527
  0
SEQEND
  8
0
  0
POLYLINE
  8
0
 62
     1
  6
CONTINUOUS
 66
     1
 40
0.000000
 41
0.000000
  0
VERTEX
  8
0
 62
     1
  6
CONTINUOUS
 10
4.994674
 20
3.615527
  0
VERTEX
  8
0
 62
     1
  6
CONTINUOUS
 10
5.068566
 20
3.623477
  0
VERTEX
  8
0
 62
     1
  6
CONTINUOUS
 10
5.137313
 20
3.650134
  0
VERTEX
  8
0
 62
     1
  6
CONTINUOUS
 10
5.197641
 20
3.692692
  0
VERTEX
  8
0
 62
     1
  6
CONTINUOUS
 10
5.245811
 20
3.749279
  0
VERTEX
  8
0
 62
     1
  6
CONTINUOUS
 10
5.278080
 20
3.817091
  0
VERTEX
  8
0
 62
     1
  6
CONTINUOUS
 10
5.290239
 20
3.894256
  0
VERTEX
  8
0
 62
     1
  6
CONTINUOUS
 10
5.279483
 20
3.978436
  0
VERTEX
  8
0
 62
     1
  6
CONTINUOUS
 10
5.242070
 20
4.066825
  0
SEQEND
  8
0
  0
POLYLINE
  8
0
 62
     1
  6
CONTINUOUS
 66
     1
 40
0.000000
 41
0.000000
  0
VERTEX
  8
0
 62
     1
  6
CONTINUOUS
 10
5.242070
 20
4.066825
  0
VERTEX
  8
0
 62
     1
  6
CONTINUOUS
 10
5.066227
 20
4.366599
  0
VERTEX
  8
0
 62
     1
  6
CONTINUOUS
 10
4.861857
 20
4.717348
  0
VERTEX
  8
0
 62
     1
  6
CONTINUOUS
 10
4.636910
 20
5.103641
  0
VERTEX
  8
0
 62
     1
  6
CONTINUOUS
 10
4.401206
 20
5.509107
  0
VERTEX
  8
0
 62
     1
  6
CONTINUOUS
 10
4.163632
 20
5.917847
  0
VERTEX
  8
0
 62
     1
  6
CONTINUOUS
 10
3.933540
 20
6.314428
  0
VERTEX
  8
0
 62
     1
  6
CONTINUOUS
 10
3.719816
 20
6.682949
  0
VERTEX
  8
0
 62
     1
  6
CONTINUOUS
 10
3.531815
 20
7.007509
  0
SEQEND
  8
0
  0
POLYLINE
  8
0
 62
     1
  6
CONTINUOUS
 66
     1
 40
0.000000
 41
0.000000
  0
VERTEX
  8
0
 62
     1
  6
CONTINUOUS
 10
3.531815
 20
7.007509
  0
VERTEX
  8
0
 62
     1
  6
CONTINUOUS
 10
3.481774
 20
7.069709
  0
VERTEX
  8
0
 62
     1
  6
CONTINUOUS
 10
3.421913
 20
7.115540
  0
VERTEX
  8
0
 62
     1
  6
CONTINUOUS
 10
3.354569
 20
7.145003
  0
VERTEX
  8
0
 62
     1
  6
CONTINUOUS
 10
3.283016
 20
7.156695
  0
VERTEX
  8
0
 62
     1
  6
CONTINUOUS
 10
3.210060
 20
7.149212
  0
VERTEX
  8
0
 62
     1
  6
CONTINUOUS
 10
3.139910
 20
7.122555
  0
VERTEX
  8
0
 62
     1
  6
CONTINUOUS
 10
3.074437
 20
7.075789
  0
VERTEX
  8
0
 62
     1
  6
CONTINUOUS
 10
3.017850
 20
7.007509
  0
SEQEND
  8
0
  0
POLYLINE
  8
0
 62
     1
  6
CONTINUOUS
 66
     1
 40
0.000000
 41
0.000000
  0
VERTEX
  8
0
 62
     1
  6
CONTINUOUS
 10
3.017850
 20
7.007509
  0
VERTEX
  8
0
 62
     1
  6
CONTINUOUS
 10
2.858843
 20
6.739069
  0
VERTEX
  8
0
 62
     1
  6
CONTINUOUS
 10
2.660553
 20
6.401882
  0
VERTEX
  8
0
 62
     1
  6
CONTINUOUS
 10
2.434202
 20
6.015590
  0
VERTEX
  8
0
 62
     1
  6
CONTINUOUS
 10
2.192419
 20
5.601705
  0
VERTEX
  8
0
 62
     1
  6
CONTINUOUS
 10
1.946426
 20
5.179870
  0
VERTEX
  8
0
 62
     1
  6
CONTINUOUS
 10
1.708384
 20
4.770662
  0
VERTEX
  8
0
 62
     1
  6
CONTINUOUS
 10
1.489517
 20
4.394659
  0
VERTEX
  8
0
 62
     1
  6
CONTINUOUS
 10
1.301983
 20
4.072437
  0
SEQEND
  8
0
  0
POLYLINE
  8
0
 62
     1
  6
CONTINUOUS
 66
     1
 40
0.000000
 41
0.000000
  0
VERTEX
  8
0
 62
     1
  6
CONTINUOUS
 10
1.301983
 20
4.072437
  0
VERTEX
  8
0
 62
     1
  6
CONTINUOUS
 10
1.270649
 20
3.978436
  0
VERTEX
  8
0
 62
     1
  6
CONTINUOUS
 10
1.265972
 20
3.892385
  0
VERTEX
  8
0
 62
     1
  6
CONTINUOUS
 10
1.283276
 20
3.815688
  0
VERTEX
  8
0
 62
     1
  6
CONTINUOUS
 10
1.319286
 20
3.748812
  0
VERTEX
  8
0
 62
     1
  6
CONTINUOUS
 10
1.370262
 20
3.694095
  0
VERTEX
  8
0
 62
     1
  6
CONTINUOUS
 10
1.431994
 20
3.652473
  0
VERTEX
  8
0
 62
     1
  6
CONTINUOUS
 10
1.501208
 20
3.625816
  0
VERTEX
  8
0
 62
     1
  6
CONTINUOUS
 10
1.574164
 20
3.615527
  0
SEQEND
  8
0
  0
POLYLINE
  8
0
 62
     1
  6
CONTINUOUS
 66
     1
 40
0.000000
 41
0.000000
  0
VERTEX
  8
0
 62
     1
  6
CONTINUOUS
 10
1.574164
 20
3.615527
  0
VERTEX
  8
0
 62
     1
  6
CONTINUOUS
 10
1.656006
 20
3.615059
  0
VERTEX
  8
0
 62
     1
  6
CONTINUOUS
 10
1.742992
 20
3.615059
  0
VERTEX
  8
0
 62
     1
  6
CONTINUOUS
 10
1.833719
 20
3.614592
  0
VERTEX
  8
0
 62
     1
  6
CONTINUOUS
 10
1.928655
 20
3.614592
  0
VERTEX
  8
0
 62
     1
  6
CONTINUOUS
 10
2.026865
 20
3.614592
  0
VERTEX
  8
0
 62
     1
  6
CONTINUOUS
 10
2.129284
 20
3.614592
  0
VERTEX
  8
0
 62
     1
  6
CONTINUOUS
 10
2.234509
 20
3.614592
  0
VERTEX
  8
0
 62
     1
  6
CONTINUOUS
 10
2.343007
 20
3.615527
  0
SEQEND
  8
0
  0
POLYLINE
  8
0
 62
     1
  6
CONTINUOUS
 66
     1
 40
0.000000
 41
0.000000
  0
VERTEX
  8
0
 62
     1
  6
CONTINUOUS
 10
2.343007
 20
3.615527
  0
VERTEX
  8
0
 62
     1
  6
CONTINUOUS
 10
2.355167
 20
3.624880
  0
VERTEX
  8
0
 62
     1
  6
CONTINUOUS
 10
2.387903
 20
3.649199
  0
VERTEX
  8
0
 62
     1
  6
CONTINUOUS
 10
2.435138
 20
3.685209
  0
VERTEX
  8
0
 62
     1
  6
CONTINUOUS
 10
2.491258
 20
3.728234
  0
VERTEX
  8
0
 62
     1
  6
CONTINUOUS
 10
2.550183
 20
3.775001
  0
VERTEX
  8
0
 62
     1
  6
CONTINUOUS
 10
2.606303
 20
3.821768
  0
VERTEX
  8
0
 62
     1
  6
CONTINUOUS
 10
2.654005
 20
3.864325
  0
VERTEX
  8
0
 62
     1
  6
CONTINUOUS
 10
2.687677
 20
3.899400
  0
SEQEND
  8
0
  0
POLYLINE
  8
0
  6
CONTINUOUS
 66
     1
 40
0.009821
 41
0.009821
  0
VERTEX
  8
0
  6
CONTINUOUS
 10
1.942217
 20
3.370938
  0
VERTEX
  8
0
  6
CONTINUOUS
 10
2.046975
 20
3.371873
  0
VERTEX
  8
0
  6
CONTINUOUS
 10
2.277534
 20
3.372341
  0
VERTEX
  8
0
  6
CONTINUOUS
 10
2.592741
 20
3.372341
  0
VERTEX
  8
0
  6
CONTINUOUS
 10
2.952844
 20
3.372341
  0
VERTEX
  8
0
  6
CONTINUOUS
 10
3.316688
 20
3.371873
  0
VERTEX
  8
0
  6
CONTINUOUS
 10
3.644522
 20
3.371405
  0
VERTEX
  8
0
  6
CONTINUOUS
 10
3.895191
 20
3.370938
  0
VERTEX
  8
0
  6
CONTINUOUS
 10
4.028944
 20
3.370938
  0
SEQEND
  8
0
  0
POLYLINE
  8
0
  6
CONTINUOUS
 66
     1
 40
0.009821
 41
0.009821
  0
VERTEX
  8
0
  6
CONTINUOUS
 10
4.028944
 20
3.370938
  0
VERTEX
  8
0
  6
CONTINUOUS
 10
4.254359
 20
4.049521
  0
VERTEX
  8
0
  6
CONTINUOUS
 10
4.242200
 20
4.598561
  0
VERTEX
  8
0
  6
CONTINUOUS
 10
4.072437
 20
5.035829
  0
VERTEX
  8
0
  6
CONTINUOUS
 10
3.823171
 20
5.379096
  0
VERTEX
  8
0
  6
CONTINUOUS
 10
3.573437
 20
5.645198
  0
VERTEX
  8
0
  6
CONTINUOUS
 10
3.402739
 20
5.851906
  0
VERTEX
  8
0
  6
CONTINUOUS
 10
3.389644
 20
6.016993
  0
VERTEX
  8
0
  6
CONTINUOUS
 10
3.613656
 20
6.157760
  0
SEQEND
  8
0
  0
POLYLINE
  8
0
  6
CONTINUOUS
 66
     1
 40
0.009821
 41
0.009821
  0
VERTEX
  8
0
  6
CONTINUOUS
 10
3.613656
 20
6.157760
  0
VERTEX
  8
0
  6
CONTINUOUS
 10
3.603835
 20
6.175064
  0
VERTEX
  8
0
  6
CONTINUOUS
 10
3.596353
 20
6.188626
  0
VERTEX
  8
0
  6
CONTINUOUS
 10
3.590741
 20
6.198915
  0
VERTEX
  8
0
  6
CONTINUOUS
 10
3.586064
 20
6.207800
  0
VERTEX
  8
0
  6
CONTINUOUS
 10
3.581855
 20
6.215283
  0
VERTEX
  8
0
  6
CONTINUOUS
 10
3.576711
 20
6.223233
  0
VERTEX
  8
0
  6
CONTINUOUS
 10
3.570163
 20
6.232587
  0
VERTEX
  8
0
  6
CONTINUOUS
 10
3.562213
 20
6.244746
  0
SEQEND
  8
0
  0
POLYLINE
  8
0
  6
CONTINUOUS
 66
     1
 40
0.009821
 41
0.009821
  0
VERTEX
  8
0
  6
CONTINUOUS
 10
3.562213
 20
6.244746
  0
VERTEX
  8
0
  6
CONTINUOUS
 10
3.109045
 20
6.093690
  0
VERTEX
  8
0
  6
CONTINUOUS
 10
2.960327
 20
5.875290
  0
VERTEX
  8
0
  6
CONTINUOUS
 10
3.000078
 20
5.593755
  0
VERTEX
  8
0
  6
CONTINUOUS
 10
3.111383
 20
5.252826
  0
VERTEX
  8
0
  6
CONTINUOUS
 10
3.177791
 20
4.855778
  0
VERTEX
  8
0
  6
CONTINUOUS
 10
3.082855
 20
4.407286
  0
VERTEX
  8
0
  6
CONTINUOUS
 10
2.709658
 20
3.911092
  0
VERTEX
  8
0
  6
CONTINUOUS
 10
1.942217
 20
3.370938
  0
SEQEND
  8
0
  0
POLYLINE
  8
0
  6
CONTINUOUS
 66
     1
 40
0.009821
 41
0.009821
  0
VERTEX
  8
0
  6
CONTINUOUS
 10
3.076308
 20
3.467277
  0
VERTEX
  8
0
  6
CONTINUOUS
 10
3.076776
 20
3.466341
  0
VERTEX
  8
0
  6
CONTINUOUS
 10
3.083323
 20
3.466341
  0
VERTEX
  8
0
  6
CONTINUOUS
 10
3.095015
 20
3.466341
  0
VERTEX
  8
0
  6
CONTINUOUS
 10
3.110448
 20
3.466341
  0
VERTEX
  8
0
  6
CONTINUOUS
 10
3.128219
 20
3.466341
  0
VERTEX
  8
0
  6
CONTINUOUS
 10
3.146925
 20
3.466809
  0
VERTEX
  8
0
  6
CONTINUOUS
 10
3.165164
 20
3.466809
  0
VERTEX
  8
0
  6
CONTINUOUS
 10
3.182468
 20
3.467277
  0
SEQEND
  8
0
  0
POLYLINE
  8
0
  6
CONTINUOUS
 66
     1
 40
0.009821
 41
0.009821
  0
VERTEX
  8
0
  6
CONTINUOUS
 10
3.182468
 20
3.467277
  0
VERTEX
  8
0
  6
CONTINUOUS
 10
3.264310
 20
3.544909
  0
VERTEX
  8
0
  6
CONTINUOUS
 10
3.335395
 20
3.616462
  0
VERTEX
  8
0
  6
CONTINUOUS
 10
3.396192
 20
3.681936
  0
VERTEX
  8
0
  6
CONTINUOUS
 10
3.447167
 20
3.740861
  0
VERTEX
  8
0
  6
CONTINUOUS
 10
3.488789
 20
3.792305
  0
VERTEX
  8
0
  6
CONTINUOUS
 10
3.521994
 20
3.836733
  0
VERTEX
  8
0
  6
CONTINUOUS
 10
3.547715
 20
3.873211
  0
VERTEX
  8
0
  6
CONTINUOUS
 10
3.565954
 20
3.902206
  0
SEQEND
  8
0
  0
POLYLINE
  8
0
  6
CONTINUOUS
 66
     1
 40
0.009821
 41
0.009821
  0
VERTEX
  8
0
  6
CONTINUOUS
 10
3.565954
 20
3.902206
  0
VERTEX
  8
0
  6
CONTINUOUS
 10
3.562213
 20
3.901739
  0
VERTEX
  8
0
  6
CONTINUOUS
 10
3.552860
 20
3.901739
  0
VERTEX
  8
0
  6
CONTINUOUS
 10
3.539297
 20
3.901271
  0
VERTEX
  8
0
  6
CONTINUOUS
 10
3.523397
 20
3.901271
  0
VERTEX
  8
0
  6
CONTINUOUS
 10
3.507028
 20
3.901271
  0
VERTEX
  8
0
  6
CONTINUOUS
 10
3.491128
 20
3.901271
  0
VERTEX
  8
0
  6
CONTINUOUS
 10
3.478033
 20
3.901271
  0
VERTEX
  8
0
  6
CONTINUOUS
 10
3.469615
 20
3.902206
  0
SEQEND
  8
0
  0
POLYLINE
  8
0
  6
CONTINUOUS
 66
     1
 40
0.009821
 41
0.009821
  0
VERTEX
  8
0
  6
CONTINUOUS
 10
3.469615
 20
3.902206
  0
VERTEX
  8
0
  6
CONTINUOUS
 10
3.446232
 20
3.868534
  0
VERTEX
  8
0
  6
CONTINUOUS
 10
3.418172
 20
3.829250
  0
VERTEX
  8
0
  6
CONTINUOUS
 10
3.384032
 20
3.784354
  0
VERTEX
  8
0
  6
CONTINUOUS
 10
3.342878
 20
3.733846
  0
VERTEX
  8
0
  6
CONTINUOUS
 10
3.292370
 20
3.676791
  0
VERTEX
  8
0
  6
CONTINUOUS
 10
3.232508
 20
3.614124
  0
VERTEX
  8
0
  6
CONTINUOUS
 10
3.160488
 20
3.544909
  0
VERTEX
  8
0
  6
CONTINUOUS
 10
3.076308
 20
3.469147
  0
SEQEND
  8
0
  0
POLYLINE
  8
0
  6
CONTINUOUS
 66
     1
 40
0.009821
 41
0.009821
  0
VERTEX
  8
0
  6
CONTINUOUS
 10
3.630960
 20
4.238926
  0
VERTEX
  8
0
  6
CONTINUOUS
 10
3.630960
 20
4.237991
  0
VERTEX
  8
0
  6
CONTINUOUS
 10
3.636104
 20
4.237523
  0
VERTEX
  8
0
  6
CONTINUOUS
 10
3.645458
 20
4.237055
  0
VERTEX
  8
0
  6
CONTINUOUS
 10
3.658085
 20
4.237055
  0
VERTEX
  8
0
  6
CONTINUOUS
 10
3.672582
 20
4.237055
  0
VERTEX
  8
0
  6
CONTINUOUS
 10
3.688951
 20
4.237055
  0
VERTEX
  8
0
  6
CONTINUOUS
 10
3.705319
 20
4.237055
  0
VERTEX
  8
0
  6
CONTINUOUS
 10
3.721687
 20
4.237055
  0
SEQEND
  8
0
  0
POLYLINE
  8
0
  6
CONTINUOUS
 66
     1
 40
0.009821
 41
0.009821
  0
VERTEX
  8
0
  6
CONTINUOUS
 10
3.721687
 20
4.237055
  0
VERTEX
  8
0
  6
CONTINUOUS
 10
3.735249
 20
4.307673
  0
VERTEX
  8
0
  6
CONTINUOUS
 10
3.745070
 20
4.365196
  0
VERTEX
  8
0
  6
CONTINUOUS
 10
3.751150
 20
4.413365
  0
VERTEX
  8
0
  6
CONTINUOUS
 10
3.754424
 20
4.457326
  0
VERTEX
  8
0
  6
CONTINUOUS
 10
3.754891
 20
4.500351
  0
VERTEX
  8
0
  6
CONTINUOUS
 10
3.753488
 20
4.547586
  0
VERTEX
  8
0
  6
CONTINUOUS
 10
3.750682
 20
4.603238
  0
VERTEX
  8
0
  6
CONTINUOUS
 10
3.747409
 20
4.671985
  0
SEQEND
  8
0
  0
POLYLINE
  8
0
  6
CONTINUOUS
 66
     1
 40
0.009821
 41
0.009821
  0
VERTEX
  8
0
  6
CONTINUOUS
 10
3.747409
 20
4.671985
  0
VERTEX
  8
0
  6
CONTINUOUS
 10
3.744135
 20
4.671517
  0
VERTEX
  8
0
  6
CONTINUOUS
 10
3.736652
 20
4.671517
  0
VERTEX
  8
0
  6
CONTINUOUS
 10
3.725896
 20
4.671049
  0
VERTEX
  8
0
  6
CONTINUOUS
 10
3.712801
 20
4.671049
  0
VERTEX
  8
0
  6
CONTINUOUS
 10
3.698772
 20
4.671049
  0
VERTEX
  8
0
  6
CONTINUOUS
 10
3.685677
 20
4.671049
  0
VERTEX
  8
0
  6
CONTINUOUS
 10
3.674453
 20
4.671049
  0
VERTEX
  8
0
  6
CONTINUOUS
 10
3.666503
 20
4.671985
  0
SEQEND
  8
0
  0
POLYLINE
  8
0
  6
CONTINUOUS
 66
     1
 40
0.009821
 41
0.009821
  0
VERTEX
  8
0
  6
CONTINUOUS
 10
3.666503
 20
4.671985
  0
VERTEX
  8
0
  6
CONTINUOUS
 10
3.670712
 20
4.606511
  0
VERTEX
  8
0
  6
CONTINUOUS
 10
3.673050
 20
4.549924
  0
VERTEX
  8
0
  6
CONTINUOUS
 10
3.673518
 20
4.498948
  0
VERTEX
  8
0
  6
CONTINUOUS
 10
3.671647
 20
4.451246
  0
VERTEX
  8
0
  6
CONTINUOUS
 10
3.666503
 20
4.404012
  0
VERTEX
  8
0
  6
CONTINUOUS
 10
3.658085
 20
4.354907
  0
VERTEX
  8
0
  6
CONTINUOUS
 10
3.646393
 20
4.301126
  0
VERTEX
  8
0
  6
CONTINUOUS
 10
3.630960
 20
4.240797
  0
SEQEND
  8
0
  0
POLYLINE
  8
0
  6
CONTINUOUS
 66
     1
 40
0.009821
 41
0.009821
  0
VERTEX
  8
0
  6
CONTINUOUS
 10
3.591676
 20
4.961470
  0
VERTEX
  8
0
  6
CONTINUOUS
 10
3.602900
 20
4.961470
  0
VERTEX
  8
0
  6
CONTINUOUS
 10
3.611318
 20
4.961470
  0
VERTEX
  8
0
  6
CONTINUOUS
 10
3.617398
 20
4.961470
  0
VERTEX
  8
0
  6
CONTINUOUS
 10
3.623010
 20
4.961470
  0
VERTEX
  8
0
  6
CONTINUOUS
 10
3.628622
 20
4.961470
  0
VERTEX
  8
0
  6
CONTINUOUS
 10
3.635637
 20
4.961470
  0
VERTEX
  8
0
  6
CONTINUOUS
 10
3.644990
 20
4.961470
  0
VERTEX
  8
0
  6
CONTINUOUS
 10
3.658552
 20
4.961470
  0
SEQEND
  8
0
  0
POLYLINE
  8
0
  6
CONTINUOUS
 66
     1
 40
0.009821
 41
0.009821
  0
VERTEX
  8
0
  6
CONTINUOUS
 10
3.658552
 20
4.961470
  0
VERTEX
  8
0
  6
CONTINUOUS
 10
3.638910
 20
5.006366
  0
VERTEX
  8
0
  6
CONTINUOUS
 10
3.614124
 20
5.056406
  0
VERTEX
  8
0
  6
CONTINUOUS
 10
3.586064
 20
5.109720
  0
VERTEX
  8
0
  6
CONTINUOUS
 10
3.557069
 20
5.163034
  0
VERTEX
  8
0
  6
CONTINUOUS
 10
3.528073
 20
5.213542
  0
VERTEX
  8
0
  6
CONTINUOUS
 10
3.502352
 20
5.257970
  0
VERTEX
  8
0
  6
CONTINUOUS
 10
3.480839
 20
5.294448
  0
VERTEX
  8
0
  6
CONTINUOUS
 10
3.465874
 20
5.319702
  0
SEQEND
  8
0
  0
POLYLINE
  8
0
  6
CONTINUOUS
 66
     1
 40
0.009821
 41
0.009821
  0
VERTEX
  8
0
  6
CONTINUOUS
 10
3.465874
 20
5.319702
  0
VERTEX
  8
0
  6
CONTINUOUS
 10
3.463535
 20
5.319702
  0
VERTEX
  8
0
  6
CONTINUOUS
 10
3.456988
 20
5.319702
  0
VERTEX
  8
0
  6
CONTINUOUS
 10
3.448102
 20
5.320170
  0
VERTEX
  8
0
  6
CONTINUOUS
 10
3.437346
 20
5.320170
  0
VERTEX
  8
0
  6
CONTINUOUS
 10
3.425654
 20
5.320170
  0
VERTEX
  8
0
  6
CONTINUOUS
 10
3.414898
 20
5.320170
  0
VERTEX
  8
0
  6
CONTINUOUS
 10
3.405545
 20
5.320170
  0
VERTEX
  8
0
  6
CONTINUOUS
 10
3.398998
 20
5.319702
  0
SEQEND
  8
0
  0
POLYLINE
  8
0
  6
CONTINUOUS
 66
     1
 40
0.009821
 41
0.009821
  0
VERTEX
  8
0
  6
CONTINUOUS
 10
3.398998
 20
5.319702
  0
VERTEX
  8
0
  6
CONTINUOUS
 10
3.425187
 20
5.279483
  0
VERTEX
  8
0
  6
CONTINUOUS
 10
3.447167
 20
5.242070
  0
VERTEX
  8
0
  6
CONTINUOUS
 10
3.467277
 20
5.205592
  0
VERTEX
  8
0
  6
CONTINUOUS
 10
3.486919
 20
5.167243
  0
VERTEX
  8
0
  6
CONTINUOUS
 10
3.507028
 20
5.125621
  0
VERTEX
  8
0
  6
CONTINUOUS
 10
3.529944
 20
5.078387
  0
VERTEX
  8
0
  6
CONTINUOUS
 10
3.557069
 20
5.023670
  0
VERTEX
  8
0
  6
CONTINUOUS
 10
3.589805
 20
4.959132
  0
SEQEND
  8
0
  0
POLYLINE
  8
0
  6
CONTINUOUS
 66
     1
 40
0.009821
 41
0.009821
  0
VERTEX
  8
0
  6
CONTINUOUS
 10
3.332121
 20
5.520331
  0
VERTEX
  8
0
  6
CONTINUOUS
 10
3.303594
 20
5.564292
  0
VERTEX
  8
0
  6
CONTINUOUS
 10
3.277872
 20
5.606849
  0
VERTEX
  8
0
  6
CONTINUOUS
 10
3.254956
 20
5.647536
  0
VERTEX
  8
0
  6
CONTINUOUS
 10
3.235782
 20
5.685417
  0
VERTEX
  8
0
  6
CONTINUOUS
 10
3.219414
 20
5.720492
  0
VERTEX
  8
0
  6
CONTINUOUS
 10
3.206787
 20
5.751826
  0
VERTEX
  8
0
  6
CONTINUOUS
 10
3.198369
 20
5.779886
  0
VERTEX
  8
0
  6
CONTINUOUS
 10
3.194160
 20
5.803737
  0
SEQEND
  8
0
  0
POLYLINE
  8
0
  6
CONTINUOUS
 66
     1
 40
0.009821
 41
0.009821
  0
VERTEX
  8
0
  6
CONTINUOUS
 10
3.194160
 20
5.803737
  0
VERTEX
  8
0
  6
CONTINUOUS
 10
3.192289
 20
5.803737
  0
VERTEX
  8
0
  6
CONTINUOUS
 10
3.188548
 20
5.803737
  0
VERTEX
  8
0
  6
CONTINUOUS
 10
3.182936
 20
5.803737
  0
VERTEX
  8
0
  6
CONTINUOUS
 10
3.175921
 20
5.803737
  0
VERTEX
  8
0
  6
CONTINUOUS
 10
3.168906
 20
5.803737
  0
VERTEX
  8
0
  6
CONTINUOUS
 10
3.161423
 20
5.803737
  0
VERTEX
  8
0
  6
CONTINUOUS
 10
3.155343
 20
5.803737
  0
VERTEX
  8
0
  6
CONTINUOUS
 10
3.150667
 20
5.803737
  0
SEQEND
  8
0
  0
POLYLINE
  8
0
  6
CONTINUOUS
 66
     1
 40
0.009821
 41
0.009821
  0
VERTEX
  8
0
  6
CONTINUOUS
 10
3.150667
 20
5.803737
  0
VERTEX
  8
0
  6
CONTINUOUS
 10
3.162358
 20
5.771000
  0
VERTEX
  8
0
  6
CONTINUOUS
 10
3.172179
 20
5.741537
  0
VERTEX
  8
0
  6
CONTINUOUS
 10
3.182000
 20
5.713010
  0
VERTEX
  8
0
  6
CONTINUOUS
 10
3.193224
 20
5.684014
  0
VERTEX
  8
0
  6
CONTINUOUS
 10
3.207254
 20
5.651745
  0
VERTEX
  8
0
  6
CONTINUOUS
 10
3.226429
 20
5.615267
  0
VERTEX
  8
0
  6
CONTINUOUS
 10
3.251683
 20
5.571774
  0
VERTEX
  8
0
  6
CONTINUOUS
 10
3.284887
 20
5.520331
  0
SEQEND
  8
0
  0
POLYLINE
  8
0
  6
CONTINUOUS
 66
     1
 40
0.009821
 41
0.009821
  0
VERTEX
  8
0
  6
CONTINUOUS
 10
3.284887
 20
5.520331
  0
VERTEX
  8
0
  6
CONTINUOUS
 10
3.285355
 20
5.520331
  0
VERTEX
  8
0
  6
CONTINUOUS
 10
3.287693
 20
5.520331
  0
VERTEX
  8
0
  6
CONTINUOUS
 10
3.291434
 20
5.520331
  0
VERTEX
  8
0
  6
CONTINUOUS
 10
3.296579
 20
5.520331
  0
VERTEX
  8
0
  6
CONTINUOUS
 10
3.303126
 20
5.520331
  0
VERTEX
  8
0
  6
CONTINUOUS
 10
3.311076
 20
5.520331
  0
VERTEX
  8
0
  6
CONTINUOUS
 10
3.320897
 20
5.520331
  0
VERTEX
  8
0
  6
CONTINUOUS
 10
3.332121
 20
5.520331
  0
SEQEND
  8
0
  0
POLYLINE
  8
0
  6
CONTINUOUS
 66
     1
 40
0.009821
 41
0.009821
  0
VERTEX
  8
0
  6
CONTINUOUS
 10
3.335863
 20
6.110526
  0
VERTEX
  8
0
  6
CONTINUOUS
 10
3.303594
 20
6.098834
  0
VERTEX
  8
0
  6
CONTINUOUS
 10
3.273195
 20
6.084337
  0
VERTEX
  8
0
  6
CONTINUOUS
 10
3.244668
 20
6.067033
  0
VERTEX
  8
0
  6
CONTINUOUS
 10
3.218478
 20
6.047391
  0
VERTEX
  8
0
  6
CONTINUOUS
 10
3.196030
 20
6.025878
  0
VERTEX
  8
0
  6
CONTINUOUS
 10
3.177324
 20
6.002963
  0
VERTEX
  8
0
  6
CONTINUOUS
 10
3.163294
 20
5.979112
  0
VERTEX
  8
0
  6
CONTINUOUS
 10
3.154876
 20
5.955261
  0
SEQEND
  8
0
  0
POLYLINE
  8
0
  6
CONTINUOUS
 66
     1
 40
0.009821
 41
0.009821
  0
VERTEX
  8
0
  6
CONTINUOUS
 10
3.154876
 20
5.955261
  0
VERTEX
  8
0
  6
CONTINUOUS
 10
3.155343
 20
5.955261
  0
VERTEX
  8
0
  6
CONTINUOUS
 10
3.157682
 20
5.955261
  0
VERTEX
  8
0
  6
CONTINUOUS
 10
3.160955
 20
5.955261
  0
VERTEX
  8
0
  6
CONTINUOUS
 10
3.165164
 20
5.955261
  0
VERTEX
  8
0
  6
CONTINUOUS
 10
3.170309
 20
5.955261
  0
VERTEX
  8
0
  6
CONTINUOUS
 10
3.175453
 20
5.955261
  0
VERTEX
  8
0
  6
CONTINUOUS
 10
3.180597
 20
5.955261
  0
VERTEX
  8
0
  6
CONTINUOUS
 10
3.186209
 20
5.955261
  0
SEQEND
  8
0
  0
POLYLINE
  8
0
  6
CONTINUOUS
 66
     1
 40
0.009821
 41
0.009821
  0
VERTEX
  8
0
  6
CONTINUOUS
 10
3.186209
 20
5.955261
  0
VERTEX
  8
0
  6
CONTINUOUS
 10
3.204916
 20
5.992674
  0
VERTEX
  8
0
  6
CONTINUOUS
 10
3.226429
 20
6.022137
  0
VERTEX
  8
0
  6
CONTINUOUS
 10
3.249812
 20
6.045053
  0
VERTEX
  8
0
  6
CONTINUOUS
 10
3.274131
 20
6.062356
  0
VERTEX
  8
0
  6
CONTINUOUS
 10
3.297514
 20
6.075451
  0
VERTEX
  8
0
  6
CONTINUOUS
 10
3.319494
 20
6.086207
  0
VERTEX
  8
0
  6
CONTINUOUS
 10
3.338201
 20
6.095560
  0
VERTEX
  8
0
  6
CONTINUOUS
 10
3.353634
 20
6.104914
  0
SEQEND
  8
0
  0
POLYLINE
  8
0
  6
CONTINUOUS
 66
     1
 40
0.009821
 41
0.009821
  0
VERTEX
  8
0
  6
CONTINUOUS
 10
3.353634
 20
6.104914
  0
VERTEX
  8
0
  6
CONTINUOUS
 10
3.352699
 20
6.104914
  0
VERTEX
  8
0
  6
CONTINUOUS
 10
3.350828
 20
6.105381
  0
VERTEX
  8
0
  6
CONTINUOUS
 10
3.347554
 20
6.106317
  0
VERTEX
  8
0
  6
CONTINUOUS
 10
3.344748
 20
6.107720
  0
VERTEX
  8
0
  6
CONTINUOUS
 10
3.341475
 20
6.108655
  0
VERTEX
  8
0
  6
CONTINUOUS
 10
3.338201
 20
6.109590
  0
VERTEX
  8
0
  6
CONTINUOUS
 10
3.336330
 20
6.110058
  0
VERTEX
  8
0
  6
CONTINUOUS
 10
3.335863
 20
6.110526
  0
SEQEND
  8
0
  0
POLYLINE
  8
0
  6
CONTINUOUS
 66
     1
 40
0.009821
 41
0.009821
  0
VERTEX
  8
0
  6
CONTINUOUS
 10
3.997143
 20
6.238666
  0
VERTEX
  8
0
  6
CONTINUOUS
 10
4.004625
 20
6.239602
  0
VERTEX
  8
0
  6
CONTINUOUS
 10
4.024735
 20
6.242875
  0
VERTEX
  8
0
  6
CONTINUOUS
 10
4.052795
 20
6.247084
  0
VERTEX
  8
0
  6
CONTINUOUS
 10
4.085531
 20
6.252229
  0
VERTEX
  8
0
  6
CONTINUOUS
 10
4.118268
 20
6.257373
  0
VERTEX
  8
0
  6
CONTINUOUS
 10
4.146328
 20
6.261582
  0
VERTEX
  8
0
  6
CONTINUOUS
 10
4.166438
 20
6.264856
  0
VERTEX
  8
0
  6
CONTINUOUS
 10
4.174388
 20
6.266259
  0
SEQEND
  8
0
  0
POLYLINE
  8
0
  6
CONTINUOUS
 66
     1
 40
0.009821
 41
0.009821
  0
VERTEX
  8
0
  6
CONTINUOUS
 10
4.174388
 20
6.266259
  0
VERTEX
  8
0
  6
CONTINUOUS
 10
4.172050
 20
6.268597
  0
VERTEX
  8
0
  6
CONTINUOUS
 10
4.165970
 20
6.275612
  0
VERTEX
  8
0
  6
CONTINUOUS
 10
4.157084
 20
6.285433
  0
VERTEX
  8
0
  6
CONTINUOUS
 10
4.147731
 20
6.296657
  0
VERTEX
  8
0
  6
CONTINUOUS
 10
4.137910
 20
6.307413
  0
VERTEX
  8
0
  6
CONTINUOUS
 10
4.129024
 20
6.317234
  0
VERTEX
  8
0
  6
CONTINUOUS
 10
4.122945
 20
6.324249
  0
VERTEX
  8
0
  6
CONTINUOUS
 10
4.121074
 20
6.327055
  0
SEQEND
  8
0
  0
POLYLINE
  8
0
  6
CONTINUOUS
 66
     1
 40
0.009821
 41
0.009821
  0
VERTEX
  8
0
  6
CONTINUOUS
 10
4.121074
 20
6.327055
  0
VERTEX
  8
0
  6
CONTINUOUS
 10
4.113591
 20
6.326120
  0
VERTEX
  8
0
  6
CONTINUOUS
 10
4.094417
 20
6.324717
  0
VERTEX
  8
0
  6
CONTINUOUS
 10
4.067292
 20
6.322379
  0
VERTEX
  8
0
  6
CONTINUOUS
 10
4.036426
 20
6.320040
  0
VERTEX
  8
0
  6
CONTINUOUS
 10
4.005093
 20
6.317702
  0
VERTEX
  8
0
  6
CONTINUOUS
 10
3.977968
 20
6.315364
  0
VERTEX
  8
0
  6
CONTINUOUS
 10
3.958794
 20
6.313961
  0
VERTEX
  8
0
  6
CONTINUOUS
 10
3.951779
 20
6.313493
  0
SEQEND
  8
0
  0
POLYLINE
  8
0
  6
CONTINUOUS
 66
     1
 40
0.009821
 41
0.009821
  0
VERTEX
  8
0
  6
CONTINUOUS
 10
3.951779
 20
6.313493
  0
VERTEX
  8
0
  6
CONTINUOUS
 10
3.953650
 20
6.310219
  0
VERTEX
  8
0
  6
CONTINUOUS
 10
3.958794
 20
6.301801
  0
VERTEX
  8
0
  6
CONTINUOUS
 10
3.965809
 20
6.289642
  0
VERTEX
  8
0
  6
CONTINUOUS
 10
3.974227
 20
6.276080
  0
VERTEX
  8
0
  6
CONTINUOUS
 10
3.982645
 20
6.262050
  0
VERTEX
  8
0
  6
CONTINUOUS
 10
3.989660
 20
6.250358
  0
VERTEX
  8
0
  6
CONTINUOUS
 10
3.994804
 20
6.241472
  0
VERTEX
  8
0
  6
CONTINUOUS
 10
3.997143
 20
6.238666
  0
SEQEND
  8
0
  0
POLYLINE
  8
0
  6
CONTINUOUS
 66
     1
 40
0.000000
 41
0.000000
  0
VERTEX
  8
0
  6
CONTINUOUS
 10
4.544780
 20
6.519266
  0
VERTEX
  8
0
  6
CONTINUOUS
 10
4.572840
 20
6.537505
  0
VERTEX
  8
0
  6
CONTINUOUS
 10
4.599497
 20
6.560888
  0
VERTEX
  8
0
  6
CONTINUOUS
 10
4.623815
 20
6.587545
  0
VERTEX
  8
0
  6
CONTINUOUS
 10
4.646263
 20
6.615605
  0
VERTEX
  8
0
  6
CONTINUOUS
 10
4.666373
 20
6.644133
  0
VERTEX
  8
0
  6
CONTINUOUS
 10
4.683676
 20
6.671725
  0
VERTEX
  8
0
  6
CONTINUOUS
 10
4.697706
 20
6.696044
  0
VERTEX
  8
0
  6
CONTINUOUS
 10
4.708930
 20
6.716153
  0
SEQEND
  8
0
  0
POLYLINE
  8
0
  6
CONTINUOUS
 66
     1
 40
0.000000
 41
0.000000
  0
VERTEX
  8
0
  6
CONTINUOUS
 10
4.708930
 20
6.716153
  0
VERTEX
  8
0
  6
CONTINUOUS
 10
4.673388
 20
6.694641
  0
VERTEX
  8
0
  6
CONTINUOUS
 10
4.642522
 20
6.673596
  0
VERTEX
  8
0
  6
CONTINUOUS
 10
4.616332
 20
6.651616
  0
VERTEX
  8
0
  6
CONTINUOUS
 10
4.594352
 20
6.629168
  0
VERTEX
  8
0
  6
CONTINUOUS
 10
4.576581
 20
6.604849
  0
VERTEX
  8
0
  6
CONTINUOUS
 10
4.562551
 20
6.579595
  0
VERTEX
  8
0
  6
CONTINUOUS
 10
4.551795
 20
6.552470
  0
VERTEX
  8
0
  6
CONTINUOUS
 10
4.544780
 20
6.523007
  0
SEQEND
  8
0
  0
POLYLINE
  8
0
  6
CONTINUOUS
 66
     1
 40
0.000000
 41
0.000000
  0
VERTEX
  8
0
  6
CONTINUOUS
 10
4.544780
 20
6.523007
  0
VERTEX
  8
0
  6
CONTINUOUS
 10
4.544780
 20
6.522540
  0
VERTEX
  8
0
  6
CONTINUOUS
 10
4.544780
 20
6.521604
  0
VERTEX
  8
0
  6
CONTINUOUS
 10
4.544780
 20
6.521137
  0
VERTEX
  8
0
  6
CONTINUOUS
 10
4.544780
 20
6.520669
  0
VERTEX
  8
0
  6
CONTINUOUS
 10
4.544780
 20
6.520201
  0
VERTEX
  8
0
  6
CONTINUOUS
 10
4.544780
 20
6.519266
  0
SEQEND
  8
0
  0
POLYLINE
  8
0
  6
CONTINUOUS
 66
     1
 40
0.000000
 41
0.000000
  0
VERTEX
  8
0
  6
CONTINUOUS
 10
4.560213
 20
6.644601
  0
VERTEX
  8
0
  6
CONTINUOUS
 10
4.547586
 20
6.607655
  0
VERTEX
  8
0
  6
CONTINUOUS
 10
4.538700
 20
6.578660
  0
VERTEX
  8
0
  6
CONTINUOUS
 10
4.532620
 20
6.555744
  0
VERTEX
  8
0
  6
CONTINUOUS
 10
4.528879
 20
6.536570
  0
VERTEX
  8
0
  6
CONTINUOUS
 10
4.526541
 20
6.519734
  0
VERTEX
  8
0
  6
CONTINUOUS
 10
4.525605
 20
6.502898
  0
VERTEX
  8
0
  6
CONTINUOUS
 10
4.525138
 20
6.484659
  0
VERTEX
  8
0
  6
CONTINUOUS
 10
4.524670
 20
6.463146
  0
SEQEND
  8
0
  0
POLYLINE
  8
0
  6
CONTINUOUS
 66
     1
 40
0.000000
 41
0.000000
  0
VERTEX
  8
0
  6
CONTINUOUS
 10
4.524670
 20
6.463146
  0
VERTEX
  8
0
  6
CONTINUOUS
 10
4.533088
 20
6.473435
  0
VERTEX
  8
0
  6
CONTINUOUS
 10
4.543844
 20
6.485126
  0
VERTEX
  8
0
  6
CONTINUOUS
 10
4.556471
 20
6.498221
  0
VERTEX
  8
0
  6
CONTINUOUS
 10
4.571437
 20
6.512719
  0
VERTEX
  8
0
  6
CONTINUOUS
 10
4.589208
 20
6.527684
  0
VERTEX
  8
0
  6
CONTINUOUS
 10
4.609317
 20
6.544052
  0
VERTEX
  8
0
  6
CONTINUOUS
 10
4.633168
 20
6.561824
  0
VERTEX
  8
0
  6
CONTINUOUS
 10
4.660293
 20
6.580530
  0
SEQEND
  8
0
  0
POLYLINE
  8
0
  6
CONTINUOUS
 66
     1
 40
0.000000
 41
0.000000
  0
VERTEX
  8
0
  6
CONTINUOUS
 10
4.660293
 20
6.580530
  0
VERTEX
  8
0
  6
CONTINUOUS
 10
4.654213
 20
6.567903
  0
VERTEX
  8
0
  6
CONTINUOUS
 10
4.641586
 20
6.548729
  0
VERTEX
  8
0
  6
CONTINUOUS
 10
4.623815
 20
6.524410
  0
VERTEX
  8
0
  6
CONTINUOUS
 10
4.600900
 20
6.497286
  0
VERTEX
  8
0
  6
CONTINUOUS
 10
4.575178
 20
6.468758
  0
VERTEX
  8
0
  6
CONTINUOUS
 10
4.547586
 20
6.440230
  0
VERTEX
  8
0
  6
CONTINUOUS
 10
4.519058
 20
6.414041
  0
VERTEX
  8
0
  6
CONTINUOUS
 10
4.490998
 20
6.391593
  0
SEQEND
  8
0
  0
POLYLINE
  8
0
  6
CONTINUOUS
 66
     1
 40
0.000000
 41
0.000000
  0
VERTEX
  8
0
  6
CONTINUOUS
 10
4.490998
 20
6.391593
  0
VERTEX
  8
0
  6
CONTINUOUS
 10
4.481177
 20
6.446778
  0
VERTEX
  8
0
  6
CONTINUOUS
 10
4.481645
 20
6.495415
  0
VERTEX
  8
0
  6
CONTINUOUS
 10
4.489127
 20
6.537973
  0
VERTEX
  8
0
  6
CONTINUOUS
 10
4.502222
 20
6.573515
  0
VERTEX
  8
0
  6
CONTINUOUS
 10
4.518123
 20
6.602043
  0
VERTEX
  8
0
  6
CONTINUOUS
 10
4.534959
 20
6.623556
  0
VERTEX
  8
0
  6
CONTINUOUS
 10
4.549456
 20
6.637586
  0
VERTEX
  8
0
  6
CONTINUOUS
 10
4.560213
 20
6.644601
  0
SEQEND
  8
0
  0
POLYLINE
  8
0
  6
CONTINUOUS
 66
     1
 40
0.000000
 41
0.000000
  0
VERTEX
  8
0
  6
CONTINUOUS
 10
4.456391
 20
6.519266
  0
VERTEX
  8
0
  6
CONTINUOUS
 10
4.455923
 20
6.479514
  0
VERTEX
  8
0
  6
CONTINUOUS
 10
4.457326
 20
6.445842
  0
VERTEX
  8
0
  6
CONTINUOUS
 10
4.459664
 20
6.417315
  0
VERTEX
  8
0
  6
CONTINUOUS
 10
4.462938
 20
6.392528
  0
VERTEX
  8
0
  6
CONTINUOUS
 10
4.465744
 20
6.370081
  0
VERTEX
  8
0
  6
CONTINUOUS
 10
4.468082
 20
6.348568
  0
VERTEX
  8
0
  6
CONTINUOUS
 10
4.469485
 20
6.327055
  0
VERTEX
  8
0
  6
CONTINUOUS
 10
4.469485
 20
6.304607
  0
SEQEND
  8
0
  0
POLYLINE
  8
0
  6
CONTINUOUS
 66
     1
 40
0.000000
 41
0.000000
  0
VERTEX
  8
0
  6
CONTINUOUS
 10
4.469485
 20
6.304607
  0
VERTEX
  8
0
  6
CONTINUOUS
 10
4.477436
 20
6.314896
  0
VERTEX
  8
0
  6
CONTINUOUS
 10
4.485854
 20
6.327523
  0
VERTEX
  8
0
  6
CONTINUOUS
 10
4.495675
 20
6.341553
  0
VERTEX
  8
0
  6
CONTINUOUS
 10
4.507366
 20
6.356986
  0
VERTEX
  8
0
  6
CONTINUOUS
 10
4.521396
 20
6.374757
  0
VERTEX
  8
0
  6
CONTINUOUS
 10
4.539168
 20
6.393931
  0
VERTEX
  8
0
  6
CONTINUOUS
 10
4.560680
 20
6.415912
  0
VERTEX
  8
0
  6
CONTINUOUS
 10
4.587337
 20
6.439763
  0
SEQEND
  8
0
  0
POLYLINE
  8
0
  6
CONTINUOUS
 66
     1
 40
0.000000
 41
0.000000
  0
VERTEX
  8
0
  6
CONTINUOUS
 10
4.587337
 20
6.439763
  0
VERTEX
  8
0
  6
CONTINUOUS
 10
4.574710
 20
6.403752
  0
VERTEX
  8
0
  6
CONTINUOUS
 10
4.559277
 20
6.368210
  0
VERTEX
  8
0
  6
CONTINUOUS
 10
4.541974
 20
6.334070
  0
VERTEX
  8
0
  6
CONTINUOUS
 10
4.523735
 20
6.301801
  0
VERTEX
  8
0
  6
CONTINUOUS
 10
4.505496
 20
6.271403
  0
VERTEX
  8
0
  6
CONTINUOUS
 10
4.488660
 20
6.243811
  0
VERTEX
  8
0
  6
CONTINUOUS
 10
4.474630
 20
6.219492
  0
VERTEX
  8
0
  6
CONTINUOUS
 10
4.464341
 20
6.199382
  0
SEQEND
  8
0
  0
POLYLINE
  8
0
  6
CONTINUOUS
 66
     1
 40
0.000000
 41
0.000000
  0
VERTEX
  8
0
  6
CONTINUOUS
 10
4.464341
 20
6.199382
  0
VERTEX
  8
0
  6
CONTINUOUS
 10
4.444699
 20
6.255970
  0
VERTEX
  8
0
  6
CONTINUOUS
 10
4.431137
 20
6.307413
  0
VERTEX
  8
0
  6
CONTINUOUS
 10
4.423654
 20
6.353712
  0
VERTEX
  8
0
  6
CONTINUOUS
 10
4.421316
 20
6.395802
  0
VERTEX
  8
0
  6
CONTINUOUS
 10
4.423654
 20
6.432748
  0
VERTEX
  8
0
  6
CONTINUOUS
 10
4.430669
 20
6.465484
  0
VERTEX
  8
0
  6
CONTINUOUS
 10
4.441425
 20
6.494012
  0
VERTEX
  8
0
  6
CONTINUOUS
 10
4.456391
 20
6.519266
  0
SEQEND
  8
0
  0
POLYLINE
  8
0
  6
CONTINUOUS
 66
     1
 40
0.000000
 41
0.000000
  0
VERTEX
  8
0
  6
CONTINUOUS
 10
4.374549
 20
6.135312
  0
VERTEX
  8
0
  6
CONTINUOUS
 10
4.400738
 20
6.097899
  0
VERTEX
  8
0
  6
CONTINUOUS
 10
4.422719
 20
6.066098
  0
VERTEX
  8
0
  6
CONTINUOUS
 10
4.441893
 20
6.038973
  0
VERTEX
  8
0
  6
CONTINUOUS
 10
4.458261
 20
6.015590
  0
VERTEX
  8
0
  6
CONTINUOUS
 10
4.473227
 20
5.995012
  0
VERTEX
  8
0
  6
CONTINUOUS
 10
4.486789
 20
5.976773
  0
VERTEX
  8
0
  6
CONTINUOUS
 10
4.499416
 20
5.959470
  0
VERTEX
  8
0
  6
CONTINUOUS
 10
4.512978
 20
5.943569
  0
SEQEND
  8
0
  0
POLYLINE
  8
0
  6
CONTINUOUS
 66
     1
 40
0.000000
 41
0.000000
  0
VERTEX
  8
0
  6
CONTINUOUS
 10
4.512978
 20
5.943569
  0
VERTEX
  8
0
  6
CONTINUOUS
 10
4.513446
 20
5.973500
  0
VERTEX
  8
0
  6
CONTINUOUS
 10
4.514381
 20
5.999221
  0
VERTEX
  8
0
  6
CONTINUOUS
 10
4.515784
 20
6.021669
  0
VERTEX
  8
0
  6
CONTINUOUS
 10
4.518590
 20
6.043650
  0
VERTEX
  8
0
  6
CONTINUOUS
 10
4.521864
 20
6.066565
  0
VERTEX
  8
0
  6
CONTINUOUS
 10
4.527008
 20
6.091819
  0
VERTEX
  8
0
  6
CONTINUOUS
 10
4.534023
 20
6.121750
  0
VERTEX
  8
0
  6
CONTINUOUS
 10
4.543844
 20
6.158695
  0
SEQEND
  8
0
  0
POLYLINE
  8
0
  6
CONTINUOUS
 66
     1
 40
0.000000
 41
0.000000
  0
VERTEX
  8
0
  6
CONTINUOUS
 10
4.543844
 20
6.158695
  0
VERTEX
  8
0
  6
CONTINUOUS
 10
4.548989
 20
6.121282
  0
VERTEX
  8
0
  6
CONTINUOUS
 10
4.552730
 20
6.083869
  0
VERTEX
  8
0
  6
CONTINUOUS
 10
4.554133
 20
6.046456
  0
VERTEX
  8
0
  6
CONTINUOUS
 10
4.554133
 20
6.009042
  0
VERTEX
  8
0
  6
CONTINUOUS
 10
4.552730
 20
5.972097
  0
VERTEX
  8
0
  6
CONTINUOUS
 10
4.550392
 20
5.936086
  0
VERTEX
  8
0
  6
CONTINUOUS
 10
4.547118
 20
5.900544
  0
VERTEX
  8
0
  6
CONTINUOUS
 10
4.543844
 20
5.866872
  0
SEQEND
  8
0
  0
POLYLINE
  8
0
  6
CONTINUOUS
 66
     1
 40
0.000000
 41
0.000000
  0
VERTEX
  8
0
  6
CONTINUOUS
 10
4.543844
 20
5.866872
  0
VERTEX
  8
0
  6
CONTINUOUS
 10
4.489127
 20
5.910832
  0
VERTEX
  8
0
  6
CONTINUOUS
 10
4.447505
 20
5.950584
  0
VERTEX
  8
0
  6
CONTINUOUS
 10
4.417107
 20
5.987530
  0
VERTEX
  8
0
  6
CONTINUOUS
 10
4.396062
 20
6.021202
  0
VERTEX
  8
0
  6
CONTINUOUS
 10
4.382967
 20
6.052535
  0
VERTEX
  8
0
  6
CONTINUOUS
 10
4.375952
 20
6.081531
  0
VERTEX
  8
0
  6
CONTINUOUS
 10
4.373614
 20
6.108655
  0
VERTEX
  8
0
  6
CONTINUOUS
 10
4.374549
 20
6.135312
  0
SEQEND
  8
0
  0
POLYLINE
  8
0
  6
CONTINUOUS
 66
     1
 40
0.000000
 41
0.000000
  0
VERTEX
  8
0
  6
CONTINUOUS
 10
4.418042
 20
5.938425
  0
VERTEX
  8
0
  6
CONTINUOUS
 10
4.446570
 20
5.908494
  0
VERTEX
  8
0
  6
CONTINUOUS
 10
4.475097
 20
5.881369
  0
VERTEX
  8
0
  6
CONTINUOUS
 10
4.503157
 20
5.857051
  0
VERTEX
  8
0
  6
CONTINUOUS
 10
4.530750
 20
5.834603
  0
VERTEX
  8
0
  6
CONTINUOUS
 10
4.557407
 20
5.813558
  0
VERTEX
  8
0
  6
CONTINUOUS
 10
4.583596
 20
5.793448
  0
VERTEX
  8
0
  6
CONTINUOUS
 10
4.608850
 20
5.773806
  0
VERTEX
  8
0
  6
CONTINUOUS
 10
4.633636
 20
5.754164
  0
SEQEND
  8
0
  0
POLYLINE
  8
0
  6
CONTINUOUS
 66
     1
 40
0.000000
 41
0.000000
  0
VERTEX
  8
0
  6
CONTINUOUS
 10
4.633636
 20
5.754164
  0
VERTEX
  8
0
  6
CONTINUOUS
 10
4.625686
 20
5.773806
  0
VERTEX
  8
0
  6
CONTINUOUS
 10
4.616800
 20
5.796722
  0
VERTEX
  8
0
  6
CONTINUOUS
 10
4.608382
 20
5.822443
  0
VERTEX
  8
0
  6
CONTINUOUS
 10
4.599964
 20
5.851439
  0
VERTEX
  8
0
  6
CONTINUOUS
 10
4.593417
 20
5.883240
  0
VERTEX
  8
0
  6
CONTINUOUS
 10
4.588273
 20
5.919250
  0
VERTEX
  8
0
  6
CONTINUOUS
 10
4.585934
 20
5.958534
  0
VERTEX
  8
0
  6
CONTINUOUS
 10
4.587337
 20
6.002495
  0
SEQEND
  8
0
  0
POLYLINE
  8
0
  6
CONTINUOUS
 66
     1
 40
0.000000
 41
0.000000
  0
VERTEX
  8
0
  6
CONTINUOUS
 10
4.587337
 20
6.002495
  0
VERTEX
  8
0
  6
CONTINUOUS
 10
4.598561
 20
5.978176
  0
VERTEX
  8
0
  6
CONTINUOUS
 10
4.611188
 20
5.950584
  0
VERTEX
  8
0
  6
CONTINUOUS
 10
4.624750
 20
5.919250
  0
VERTEX
  8
0
  6
CONTINUOUS
 10
4.638313
 20
5.883708
  0
VERTEX
  8
0
  6
CONTINUOUS
 10
4.651407
 20
5.844424
  0
VERTEX
  8
0
  6
CONTINUOUS
 10
4.663099
 20
5.800463
  0
VERTEX
  8
0
  6
CONTINUOUS
 10
4.672452
 20
5.752761
  0
VERTEX
  8
0
  6
CONTINUOUS
 10
4.679467
 20
5.700383
  0
SEQEND
  8
0
  0
POLYLINE
  8
0
  6
CONTINUOUS
 66
     1
 40
0.000000
 41
0.000000
  0
VERTEX
  8
0
  6
CONTINUOUS
 10
4.679467
 20
5.700383
  0
VERTEX
  8
0
  6
CONTINUOUS
 10
4.604173
 20
5.729378
  0
VERTEX
  8
0
  6
CONTINUOUS
 10
4.545715
 20
5.762115
  0
VERTEX
  8
0
  6
CONTINUOUS
 10
4.500819
 20
5.796722
  0
VERTEX
  8
0
  6
CONTINUOUS
 10
4.468082
 20
5.831329
  0
VERTEX
  8
0
  6
CONTINUOUS
 10
4.445634
 20
5.864533
  0
VERTEX
  8
0
  6
CONTINUOUS
 10
4.431137
 20
5.894464
  0
VERTEX
  8
0
  6
CONTINUOUS
 10
4.422251
 20
5.919718
  0
VERTEX
  8
0
  6
CONTINUOUS
 10
4.418042
 20
5.938425
  0
SEQEND
  8
0
  0
POLYLINE
  8
0
  6
CONTINUOUS
 66
     1
 40
0.000000
 41
0.000000
  0
VERTEX
  8
0
  6
CONTINUOUS
 10
4.538700
 20
5.718622
  0
VERTEX
  8
0
  6
CONTINUOUS
 10
4.577516
 20
5.701786
  0
VERTEX
  8
0
  6
CONTINUOUS
 10
4.615865
 20
5.686820
  0
VERTEX
  8
0
  6
CONTINUOUS
 10
4.653278
 20
5.673726
  0
VERTEX
  8
0
  6
CONTINUOUS
 10
4.688821
 20
5.662502
  0
VERTEX
  8
0
  6
CONTINUOUS
 10
4.722960
 20
5.652213
  0
VERTEX
  8
0
  6
CONTINUOUS
 10
4.755229
 20
5.643795
  0
VERTEX
  8
0
  6
CONTINUOUS
 10
4.785160
 20
5.636780
  0
VERTEX
  8
0
  6
CONTINUOUS
 10
4.812752
 20
5.631636
  0
SEQEND
  8
0
  0
POLYLINE
  8
0
  6
CONTINUOUS
 66
     1
 40
0.000000
 41
0.000000
  0
VERTEX
  8
0
  6
CONTINUOUS
 10
4.812752
 20
5.631636
  0
VERTEX
  8
0
  6
CONTINUOUS
 10
4.776274
 20
5.664840
  0
VERTEX
  8
0
  6
CONTINUOUS
 10
4.749150
 20
5.696174
  0
VERTEX
  8
0
  6
CONTINUOUS
 10
4.729040
 20
5.725637
  0
VERTEX
  8
0
  6
CONTINUOUS
 10
4.715010
 20
5.753697
  0
VERTEX
  8
0
  6
CONTINUOUS
 10
4.704721
 20
5.780354
  0
VERTEX
  8
0
  6
CONTINUOUS
 10
4.698174
 20
5.807478
  0
VERTEX
  8
0
  6
CONTINUOUS
 10
4.692562
 20
5.834135
  0
VERTEX
  8
0
  6
CONTINUOUS
 10
4.687418
 20
5.861727
  0
SEQEND
  8
0
  0
POLYLINE
  8
0
  6
CONTINUOUS
 66
     1
 40
0.000000
 41
0.000000
  0
VERTEX
  8
0
  6
CONTINUOUS
 10
4.687418
 20
5.861727
  0
VERTEX
  8
0
  6
CONTINUOUS
 10
4.699577
 20
5.852374
  0
VERTEX
  8
0
  6
CONTINUOUS
 10
4.718284
 20
5.831329
  0
VERTEX
  8
0
  6
CONTINUOUS
 10
4.741199
 20
5.800931
  0
VERTEX
  8
0
  6
CONTINUOUS
 10
4.767856
 20
5.763985
  0
VERTEX
  8
0
  6
CONTINUOUS
 10
4.795449
 20
5.724234
  0
VERTEX
  8
0
  6
CONTINUOUS
 10
4.823509
 20
5.684482
  0
VERTEX
  8
0
  6
CONTINUOUS
 10
4.849230
 20
5.647069
  0
VERTEX
  8
0
  6
CONTINUOUS
 10
4.872146
 20
5.616203
  0
SEQEND
  8
0
  0
POLYLINE
  8
0
  6
CONTINUOUS
 66
     1
 40
0.000000
 41
0.000000
  0
VERTEX
  8
0
  6
CONTINUOUS
 10
4.872146
 20
5.616203
  0
VERTEX
  8
0
  6
CONTINUOUS
 10
4.816026
 20
5.606382
  0
VERTEX
  8
0
  6
CONTINUOUS
 10
4.765518
 20
5.603108
  0
VERTEX
  8
0
  6
CONTINUOUS
 10
4.719687
 20
5.605914
  0
VERTEX
  8
0
  6
CONTINUOUS
 10
4.678064
 20
5.615267
  0
VERTEX
  8
0
  6
CONTINUOUS
 10
4.639716
 20
5.631168
  0
VERTEX
  8
0
  6
CONTINUOUS
 10
4.604173
 20
5.653148
  0
VERTEX
  8
0
  6
CONTINUOUS
 10
4.570501
 20
5.682611
  0
VERTEX
  8
0
  6
CONTINUOUS
 10
4.538700
 20
5.718622
  0
SEQEND
  8
0
  0
POLYLINE
  8
0
  6
CONTINUOUS
 66
     1
 40
0.000000
 41
0.000000
  0
VERTEX
  8
0
  6
CONTINUOUS
 10
4.387176
 20
6.332667
  0
VERTEX
  8
0
  6
CONTINUOUS
 10
4.402609
 20
6.296189
  0
VERTEX
  8
0
  6
CONTINUOUS
 10
4.415236
 20
6.264856
  0
VERTEX
  8
0
  6
CONTINUOUS
 10
4.425525
 20
6.237731
  0
VERTEX
  8
0
  6
CONTINUOUS
 10
4.434410
 20
6.213880
  0
VERTEX
  8
0
  6
CONTINUOUS
 10
4.442361
 20
6.190964
  0
VERTEX
  8
0
  6
CONTINUOUS
 10
4.449843
 20
6.168516
  0
VERTEX
  8
0
  6
CONTINUOUS
 10
4.457326
 20
6.145601
  0
VERTEX
  8
0
  6
CONTINUOUS
 10
4.466679
 20
6.120347
  0
SEQEND
  8
0
  0
POLYLINE
  8
0
  6
CONTINUOUS
 66
     1
 40
0.000000
 41
0.000000
  0
VERTEX
  8
0
  6
CONTINUOUS
 10
4.466679
 20
6.120347
  0
VERTEX
  8
0
  6
CONTINUOUS
 10
4.470421
 20
6.140924
  0
VERTEX
  8
0
  6
CONTINUOUS
 10
4.475565
 20
6.160566
  0
VERTEX
  8
0
  6
CONTINUOUS
 10
4.481645
 20
6.179740
  0
VERTEX
  8
0
  6
CONTINUOUS
 10
4.489595
 20
6.199382
  0
VERTEX
  8
0
  6
CONTINUOUS
 10
4.499416
 20
6.219960
  0
VERTEX
  8
0
  6
CONTINUOUS
 10
4.512511
 20
6.242408
  0
VERTEX
  8
0
  6
CONTINUOUS
 10
4.528879
 20
6.267662
  0
VERTEX
  8
0
  6
CONTINUOUS
 10
4.548989
 20
6.296657
  0
SEQEND
  8
0
  0
POLYLINE
  8
0
  6
CONTINUOUS
 66
     1
 40
0.000000
 41
0.000000
  0
VERTEX
  8
0
  6
CONTINUOUS
 10
4.548989
 20
6.296657
  0
VERTEX
  8
0
  6
CONTINUOUS
 10
4.547586
 20
6.271871
  0
VERTEX
  8
0
  6
CONTINUOUS
 10
4.543377
 20
6.243811
  0
VERTEX
  8
0
  6
CONTINUOUS
 10
4.535894
 20
6.212477
  0
VERTEX
  8
0
  6
CONTINUOUS
 10
4.525605
 20
6.179273
  0
VERTEX
  8
0
  6
CONTINUOUS
 10
4.513446
 20
6.144665
  0
VERTEX
  8
0
  6
CONTINUOUS
 10
4.499884
 20
6.110058
  0
VERTEX
  8
0
  6
CONTINUOUS
 10
4.484918
 20
6.075919
  0
VERTEX
  8
0
  6
CONTINUOUS
 10
4.469485
 20
6.043182
  0
SEQEND
  8
0
  0
POLYLINE
  8
0
  6
CONTINUOUS
 66
     1
 40
0.000000
 41
0.000000
  0
VERTEX
  8
0
  6
CONTINUOUS
 10
4.469485
 20
6.043182
  0
VERTEX
  8
0
  6
CONTINUOUS
 10
4.436281
 20
6.089013
  0
VERTEX
  8
0
  6
CONTINUOUS
 10
4.412430
 20
6.132974
  0
VERTEX
  8
0
  6
CONTINUOUS
 10
4.396997
 20
6.174128
  0
VERTEX
  8
0
  6
CONTINUOUS
 10
4.387644
 20
6.212945
  0
VERTEX
  8
0
  6
CONTINUOUS
 10
4.383435
 20
6.248020
  0
VERTEX
  8
0
  6
CONTINUOUS
 10
4.382967
 20
6.279821
  0
VERTEX
  8
0
  6
CONTINUOUS
 10
4.384370
 20
6.308349
  0
VERTEX
  8
0
  6
CONTINUOUS
 10
4.387176
 20
6.332667
  0
SEQEND
  8
0
  0
POLYLINE
  8
0
  6
CONTINUOUS
 66
     1
 40
0.000000
 41
0.000000
  0
VERTEX
  8
0
  6
CONTINUOUS
 10
5.339812
 20
5.465147
  0
VERTEX
  8
0
  6
CONTINUOUS
 10
5.219622
 20
5.546053
  0
VERTEX
  8
0
  6
CONTINUOUS
 10
5.119074
 20
5.590481
  0
VERTEX
  8
0
  6
CONTINUOUS
 10
5.033023
 20
5.606849
  0
VERTEX
  8
0
  6
CONTINUOUS
 10
4.956326
 20
5.604511
  0
VERTEX
  8
0
  6
CONTINUOUS
 10
4.884773
 20
5.591884
  0
VERTEX
  8
0
  6
CONTINUOUS
 10
4.812285
 20
5.577854
  0
VERTEX
  8
0
  6
CONTINUOUS
 10
4.735120
 20
5.571774
  0
VERTEX
  8
0
  6
CONTINUOUS
 10
4.647666
 20
5.582998
  0
SEQEND
  8
0
  0
POLYLINE
  8
0
  6
CONTINUOUS
 66
     1
 40
0.000000
 41
0.000000
  0
VERTEX
  8
0
  6
CONTINUOUS
 10
4.647666
 20
5.582998
  0
VERTEX
  8
0
  6
CONTINUOUS
 10
4.688353
 20
5.555406
  0
VERTEX
  8
0
  6
CONTINUOUS
 10
4.729040
 20
5.537635
  0
VERTEX
  8
0
  6
CONTINUOUS
 10
4.769727
 20
5.527346
  0
VERTEX
  8
0
  6
CONTINUOUS
 10
4.810414
 20
5.524072
  0
VERTEX
  8
0
  6
CONTINUOUS
 10
4.850166
 20
5.526411
  0
VERTEX
  8
0
  6
CONTINUOUS
 10
4.889450
 20
5.532958
  0
VERTEX
  8
0
  6
CONTINUOUS
 10
4.927798
 20
5.542311
  0
VERTEX
  8
0
  6
CONTINUOUS
 10
4.965679
 20
5.553535
  0
SEQEND
  8
0
  0
POLYLINE
  8
0
  6
CONTINUOUS
 66
     1
 40
0.000000
 41
0.000000
  0
VERTEX
  8
0
  6
CONTINUOUS
 10
4.965679
 20
5.553535
  0
VERTEX
  8
0
  6
CONTINUOUS
 10
5.002625
 20
5.566162
  0
VERTEX
  8
0
  6
CONTINUOUS
 10
5.040038
 20
5.576451
  0
VERTEX
  8
0
  6
CONTINUOUS
 10
5.078387
 20
5.582063
  0
VERTEX
  8
0
  6
CONTINUOUS
 10
5.118138
 20
5.581128
  0
VERTEX
  8
0
  6
CONTINUOUS
 10
5.159761
 20
5.570839
  0
VERTEX
  8
0
  6
CONTINUOUS
 10
5.203721
 20
5.549794
  0
VERTEX
  8
0
  6
CONTINUOUS
 10
5.250488
 20
5.515187
  0
VERTEX
  8
0
  6
CONTINUOUS
 10
5.301463
 20
5.465147
  0
SEQEND
  8
0
  0
POLYLINE
  8
0
  6
CONTINUOUS
 66
     1
 40
0.000000
 41
0.000000
  0
VERTEX
  8
0
  6
CONTINUOUS
 10
5.301463
 20
5.465147
  0
VERTEX
  8
0
  6
CONTINUOUS
 10
5.303802
 20
5.466550
  0
VERTEX
  8
0
  6
CONTINUOUS
 10
5.305205
 20
5.467017
  0
VERTEX
  8
0
  6
CONTINUOUS
 10
5.305672
 20
5.467017
  0
VERTEX
  8
0
  6
CONTINUOUS
 10
5.305205
 20
5.466082
  0
VERTEX
  8
0
  6
CONTINUOUS
 10
5.304737
 20
5.465614
  0
VERTEX
  8
0
  6
CONTINUOUS
 10
5.304269
 20
5.465147
  0
SEQEND
  8
0
  0
POLYLINE
  8
0
  6
CONTINUOUS
 66
     1
 40
0.000000
 41
0.000000
  0
VERTEX
  8
0
  6
CONTINUOUS
 10
5.304269
 20
5.465147
  0
VERTEX
  8
0
  6
CONTINUOUS
 10
5.304737
 20
5.465147
  0
VERTEX
  8
0
  6
CONTINUOUS
 10
5.305205
 20
5.465147
  0
VERTEX
  8
0
  6
CONTINUOUS
 10
5.305672
 20
5.465147
  0
VERTEX
  8
0
  6
CONTINUOUS
 10
5.306140
 20
5.465147
  0
VERTEX
  8
0
  6
CONTINUOUS
 10
5.306608
 20
5.465147
  0
SEQEND
  8
0
  0
POLYLINE
  8
0
  6
CONTINUOUS
 66
     1
 40
0.000000
 41
0.000000
  0
VERTEX
  8
0
  6
CONTINUOUS
 10
5.306608
 20
5.465147
  0
VERTEX
  8
0
  6
CONTINUOUS
 10
5.307075
 20
5.464679
  0
VERTEX
  8
0
  6
CONTINUOUS
 10
5.309414
 20
5.464679
  0
VERTEX
  8
0
  6
CONTINUOUS
 10
5.312687
 20
5.464679
  0
VERTEX
  8
0
  6
CONTINUOUS
 10
5.317364
 20
5.464211
  0
VERTEX
  8
0
  6
CONTINUOUS
 10
5.322508
 20
5.464211
  0
VERTEX
  8
0
  6
CONTINUOUS
 10
5.327653
 20
5.464211
  0
VERTEX
  8
0
  6
CONTINUOUS
 10
5.333732
 20
5.464679
  0
VERTEX
  8
0
  6
CONTINUOUS
 10
5.339812
 20
5.465147
  0
SEQEND
  8
0
  0
POLYLINE
  8
0
  6
CONTINUOUS
 66
     1
 40
0.000000
 41
0.000000
  0
VERTEX
  8
0
  6
CONTINUOUS
 10
5.776145
 20
6.522072
  0
VERTEX
  8
0
  6
CONTINUOUS
 10
5.747617
 20
6.540311
  0
VERTEX
  8
0
  6
CONTINUOUS
 10
5.720960
 20
6.563227
  0
VERTEX
  8
0
  6
CONTINUOUS
 10
5.696641
 20
6.589884
  0
VERTEX
  8
0
  6
CONTINUOUS
 10
5.674193
 20
6.618411
  0
VERTEX
  8
0
  6
CONTINUOUS
 10
5.654084
 20
6.646939
  0
VERTEX
  8
0
  6
CONTINUOUS
 10
5.636780
 20
6.674064
  0
VERTEX
  8
0
  6
CONTINUOUS
 10
5.622750
 20
6.698850
  0
VERTEX
  8
0
  6
CONTINUOUS
 10
5.611994
 20
6.718959
  0
SEQEND
  8
0
  0
POLYLINE
  8
0
  6
CONTINUOUS
 66
     1
 40
0.000000
 41
0.000000
  0
VERTEX
  8
0
  6
CONTINUOUS
 10
5.611994
 20
6.718959
  0
VERTEX
  8
0
  6
CONTINUOUS
 10
5.647069
 20
6.697447
  0
VERTEX
  8
0
  6
CONTINUOUS
 10
5.677935
 20
6.676402
  0
VERTEX
  8
0
  6
CONTINUOUS
 10
5.704124
 20
6.654422
  0
VERTEX
  8
0
  6
CONTINUOUS
 10
5.726104
 20
6.631506
  0
VERTEX
  8
0
  6
CONTINUOUS
 10
5.743876
 20
6.607655
  0
VERTEX
  8
0
  6
CONTINUOUS
 10
5.757906
 20
6.582401
  0
VERTEX
  8
0
  6
CONTINUOUS
 10
5.768662
 20
6.555276
  0
VERTEX
  8
0
  6
CONTINUOUS
 10
5.776145
 20
6.525813
  0
SEQEND
  8
0
  0
POLYLINE
  8
0
  6
CONTINUOUS
 66
     1
 40
0.000000
 41
0.000000
  0
VERTEX
  8
0
  6
CONTINUOUS
 10
5.776145
 20
6.525813
  0
VERTEX
  8
0
  6
CONTINUOUS
 10
5.776145
 20
6.524878
  0
VERTEX
  8
0
  6
CONTINUOUS
 10
5.776145
 20
6.524410
  0
VERTEX
  8
0
  6
CONTINUOUS
 10
5.776145
 20
6.523943
  0
VERTEX
  8
0
  6
CONTINUOUS
 10
5.776145
 20
6.523007
  0
VERTEX
  8
0
  6
CONTINUOUS
 10
5.776145
 20
6.522540
  0
VERTEX
  8
0
  6
CONTINUOUS
 10
5.776145
 20
6.522072
  0
SEQEND
  8
0
  0
POLYLINE
  8
0
  6
CONTINUOUS
 66
     1
 40
0.000000
 41
0.000000
  0
VERTEX
  8
0
  6
CONTINUOUS
 10
5.760712
 20
6.647407
  0
VERTEX
  8
0
  6
CONTINUOUS
 10
5.772871
 20
6.610461
  0
VERTEX
  8
0
  6
CONTINUOUS
 10
5.781757
 20
6.580998
  0
VERTEX
  8
0
  6
CONTINUOUS
 10
5.787836
 20
6.558082
  0
VERTEX
  8
0
  6
CONTINUOUS
 10
5.791577
 20
6.538908
  0
VERTEX
  8
0
  6
CONTINUOUS
 10
5.793916
 20
6.522072
  0
VERTEX
  8
0
  6
CONTINUOUS
 10
5.794851
 20
6.505236
  0
VERTEX
  8
0
  6
CONTINUOUS
 10
5.795319
 20
6.486997
  0
VERTEX
  8
0
  6
CONTINUOUS
 10
5.796254
 20
6.465484
  0
SEQEND
  8
0
  0
POLYLINE
  8
0
  6
CONTINUOUS
 66
     1
 40
0.000000
 41
0.000000
  0
VERTEX
  8
0
  6
CONTINUOUS
 10
5.796254
 20
6.465484
  0
VERTEX
  8
0
  6
CONTINUOUS
 10
5.787369
 20
6.475773
  0
VERTEX
  8
0
  6
CONTINUOUS
 10
5.776612
 20
6.487932
  0
VERTEX
  8
0
  6
CONTINUOUS
 10
5.763985
 20
6.501027
  0
VERTEX
  8
0
  6
CONTINUOUS
 10
5.749020
 20
6.515057
  0
VERTEX
  8
0
  6
CONTINUOUS
 10
5.731249
 20
6.530490
  0
VERTEX
  8
0
  6
CONTINUOUS
 10
5.711139
 20
6.546858
  0
VERTEX
  8
0
  6
CONTINUOUS
 10
5.687288
 20
6.564162
  0
VERTEX
  8
0
  6
CONTINUOUS
 10
5.660631
 20
6.583336
  0
SEQEND
  8
0
  0
POLYLINE
  8
0
  6
CONTINUOUS
 66
     1
 40
0.000000
 41
0.000000
  0
VERTEX
  8
0
  6
CONTINUOUS
 10
5.660631
 20
6.583336
  0
VERTEX
  8
0
  6
CONTINUOUS
 10
5.666243
 20
6.570709
  0
VERTEX
  8
0
  6
CONTINUOUS
 10
5.678870
 20
6.551535
  0
VERTEX
  8
0
  6
CONTINUOUS
 10
5.696641
 20
6.527216
  0
VERTEX
  8
0
  6
CONTINUOUS
 10
5.719557
 20
6.500092
  0
VERTEX
  8
0
  6
CONTINUOUS
 10
5.745279
 20
6.471096
  0
VERTEX
  8
0
  6
CONTINUOUS
 10
5.772871
 20
6.442569
  0
VERTEX
  8
0
  6
CONTINUOUS
 10
5.801398
 20
6.416379
  0
VERTEX
  8
0
  6
CONTINUOUS
 10
5.829926
 20
6.393931
  0
SEQEND
  8
0
  0
POLYLINE
  8
0
  6
CONTINUOUS
 66
     1
 40
0.000000
 41
0.000000
  0
VERTEX
  8
0
  6
CONTINUOUS
 10
5.829926
 20
6.393931
  0
VERTEX
  8
0
  6
CONTINUOUS
 10
5.839279
 20
6.449116
  0
VERTEX
  8
0
  6
CONTINUOUS
 10
5.838812
 20
6.498221
  0
VERTEX
  8
0
  6
CONTINUOUS
 10
5.831329
 20
6.540311
  0
VERTEX
  8
0
  6
CONTINUOUS
 10
5.818234
 20
6.575854
  0
VERTEX
  8
0
  6
CONTINUOUS
 10
5.802334
 20
6.604849
  0
VERTEX
  8
0
  6
CONTINUOUS
 10
5.785498
 20
6.626362
  0
VERTEX
  8
0
  6
CONTINUOUS
 10
5.771000
 20
6.640392
  0
VERTEX
  8
0
  6
CONTINUOUS
 10
5.760712
 20
6.647407
  0
SEQEND
  8
0
  0
POLYLINE
  8
0
  6
CONTINUOUS
 66
     1
 40
0.000000
 41
0.000000
  0
VERTEX
  8
0
  6
CONTINUOUS
 10
5.864533
 20
6.522072
  0
VERTEX
  8
0
  6
CONTINUOUS
 10
5.864533
 20
6.481853
  0
VERTEX
  8
0
  6
CONTINUOUS
 10
5.863130
 20
6.448648
  0
VERTEX
  8
0
  6
CONTINUOUS
 10
5.860792
 20
6.420121
  0
VERTEX
  8
0
  6
CONTINUOUS
 10
5.857986
 20
6.394867
  0
VERTEX
  8
0
  6
CONTINUOUS
 10
5.854712
 20
6.372419
  0
VERTEX
  8
0
  6
CONTINUOUS
 10
5.852374
 20
6.350906
  0
VERTEX
  8
0
  6
CONTINUOUS
 10
5.850971
 20
6.329394
  0
VERTEX
  8
0
  6
CONTINUOUS
 10
5.851439
 20
6.306946
  0
SEQEND
  8
0
  0
POLYLINE
  8
0
  6
CONTINUOUS
 66
     1
 40
0.000000
 41
0.000000
  0
VERTEX
  8
0
  6
CONTINUOUS
 10
5.851439
 20
6.306946
  0
VERTEX
  8
0
  6
CONTINUOUS
 10
5.843021
 20
6.317702
  0
VERTEX
  8
0
  6
CONTINUOUS
 10
5.834603
 20
6.329861
  0
VERTEX
  8
0
  6
CONTINUOUS
 10
5.824782
 20
6.343891
  0
VERTEX
  8
0
  6
CONTINUOUS
 10
5.813090
 20
6.359792
  0
VERTEX
  8
0
  6
CONTINUOUS
 10
5.799060
 20
6.377096
  0
VERTEX
  8
0
  6
CONTINUOUS
 10
5.781289
 20
6.396737
  0
VERTEX
  8
0
  6
CONTINUOUS
 10
5.759776
 20
6.418718
  0
VERTEX
  8
0
  6
CONTINUOUS
 10
5.733587
 20
6.442569
  0
SEQEND
  8
0
  0
POLYLINE
  8
0
  6
CONTINUOUS
 66
     1
 40
0.000000
 41
0.000000
  0
VERTEX
  8
0
  6
CONTINUOUS
 10
5.733587
 20
6.442569
  0
VERTEX
  8
0
  6
CONTINUOUS
 10
5.745746
 20
6.406558
  0
VERTEX
  8
0
  6
CONTINUOUS
 10
5.761179
 20
6.371016
  0
VERTEX
  8
0
  6
CONTINUOUS
 10
5.778483
 20
6.336876
  0
VERTEX
  8
0
  6
CONTINUOUS
 10
5.797189
 20
6.304607
  0
VERTEX
  8
0
  6
CONTINUOUS
 10
5.814961
 20
6.274209
  0
VERTEX
  8
0
  6
CONTINUOUS
 10
5.831797
 20
6.246617
  0
VERTEX
  8
0
  6
CONTINUOUS
 10
5.845827
 20
6.222298
  0
VERTEX
  8
0
  6
CONTINUOUS
 10
5.856583
 20
6.202188
  0
SEQEND
  8
0
  0
POLYLINE
  8
0
  6
CONTINUOUS
 66
     1
 40
0.000000
 41
0.000000
  0
VERTEX
  8
0
  6
CONTINUOUS
 10
5.856583
 20
6.202188
  0
VERTEX
  8
0
  6
CONTINUOUS
 10
5.875757
 20
6.258776
  0
VERTEX
  8
0
  6
CONTINUOUS
 10
5.889320
 20
6.310219
  0
VERTEX
  8
0
  6
CONTINUOUS
 10
5.896802
 20
6.356518
  0
VERTEX
  8
0
  6
CONTINUOUS
 10
5.899141
 20
6.398140
  0
VERTEX
  8
0
  6
CONTINUOUS
 10
5.896802
 20
6.435086
  0
VERTEX
  8
0
  6
CONTINUOUS
 10
5.889787
 20
6.468290
  0
VERTEX
  8
0
  6
CONTINUOUS
 10
5.879031
 20
6.496818
  0
VERTEX
  8
0
  6
CONTINUOUS
 10
5.864533
 20
6.522072
  0
SEQEND
  8
0
  0
POLYLINE
  8
0
  6
CONTINUOUS
 66
     1
 40
0.000000
 41
0.000000
  0
VERTEX
  8
0
  6
CONTINUOUS
 10
5.946375
 20
6.138118
  0
VERTEX
  8
0
  6
CONTINUOUS
 10
5.919718
 20
6.100705
  0
VERTEX
  8
0
  6
CONTINUOUS
 10
5.897738
 20
6.068436
  0
VERTEX
  8
0
  6
CONTINUOUS
 10
5.878563
 20
6.041311
  0
VERTEX
  8
0
  6
CONTINUOUS
 10
5.862195
 20
6.017928
  0
VERTEX
  8
0
  6
CONTINUOUS
 10
5.847230
 20
5.997351
  0
VERTEX
  8
0
  6
CONTINUOUS
 10
5.833667
 20
5.979112
  0
VERTEX
  8
0
  6
CONTINUOUS
 10
5.821040
 20
5.962276
  0
VERTEX
  8
0
  6
CONTINUOUS
 10
5.807946
 20
5.946375
  0
SEQEND
  8
0
  0
POLYLINE
  8
0
  6
CONTINUOUS
 66
     1
 40
0.000000
 41
0.000000
  0
VERTEX
  8
0
  6
CONTINUOUS
 10
5.807946
 20
5.946375
  0
VERTEX
  8
0
  6
CONTINUOUS
 10
5.807010
 20
5.976306
  0
VERTEX
  8
0
  6
CONTINUOUS
 10
5.806075
 20
6.001560
  0
VERTEX
  8
0
  6
CONTINUOUS
 10
5.804672
 20
6.024475
  0
VERTEX
  8
0
  6
CONTINUOUS
 10
5.802334
 20
6.045988
  0
VERTEX
  8
0
  6
CONTINUOUS
 10
5.798592
 20
6.068904
  0
VERTEX
  8
0
  6
CONTINUOUS
 10
5.793448
 20
6.094157
  0
VERTEX
  8
0
  6
CONTINUOUS
 10
5.786433
 20
6.124088
  0
VERTEX
  8
0
  6
CONTINUOUS
 10
5.777080
 20
6.161034
  0
SEQEND
  8
0
  0
POLYLINE
  8
0
  6
CONTINUOUS
 66
     1
 40
0.000000
 41
0.000000
  0
VERTEX
  8
0
  6
CONTINUOUS
 10
5.777080
 20
6.161034
  0
VERTEX
  8
0
  6
CONTINUOUS
 10
5.771468
 20
6.123620
  0
VERTEX
  8
0
  6
CONTINUOUS
 10
5.767727
 20
6.086207
  0
VERTEX
  8
0
  6
CONTINUOUS
 10
5.766324
 20
6.048794
  0
VERTEX
  8
0
  6
CONTINUOUS
 10
5.766324
 20
6.011381
  0
VERTEX
  8
0
  6
CONTINUOUS
 10
5.767727
 20
5.974903
  0
VERTEX
  8
0
  6
CONTINUOUS
 10
5.770065
 20
5.938425
  0
VERTEX
  8
0
  6
CONTINUOUS
 10
5.773339
 20
5.903350
  0
VERTEX
  8
0
  6
CONTINUOUS
 10
5.777080
 20
5.869210
  0
SEQEND
  8
0
  0
POLYLINE
  8
0
  6
CONTINUOUS
 66
     1
 40
0.000000
 41
0.000000
  0
VERTEX
  8
0
  6
CONTINUOUS
 10
5.777080
 20
5.869210
  0
VERTEX
  8
0
  6
CONTINUOUS
 10
5.831329
 20
5.913171
  0
VERTEX
  8
0
  6
CONTINUOUS
 10
5.872951
 20
5.952922
  0
VERTEX
  8
0
  6
CONTINUOUS
 10
5.903350
 20
5.989868
  0
VERTEX
  8
0
  6
CONTINUOUS
 10
5.924395
 20
6.023540
  0
VERTEX
  8
0
  6
CONTINUOUS
 10
5.937489
 20
6.054874
  0
VERTEX
  8
0
  6
CONTINUOUS
 10
5.944504
 20
6.083869
  0
VERTEX
  8
0
  6
CONTINUOUS
 10
5.946843
 20
6.111461
  0
VERTEX
  8
0
  6
CONTINUOUS
 10
5.946375
 20
6.138118
  0
SEQEND
  8
0
  0
POLYLINE
  8
0
  6
CONTINUOUS
 66
     1
 40
0.000000
 41
0.000000
  0
VERTEX
  8
0
  6
CONTINUOUS
 10
5.902882
 20
5.941231
  0
VERTEX
  8
0
  6
CONTINUOUS
 10
5.873887
 20
5.910832
  0
VERTEX
  8
0
  6
CONTINUOUS
 10
5.845827
 20
5.884175
  0
VERTEX
  8
0
  6
CONTINUOUS
 10
5.817767
 20
5.859857
  0
VERTEX
  8
0
  6
CONTINUOUS
 10
5.790175
 20
5.837409
  0
VERTEX
  8
0
  6
CONTINUOUS
 10
5.763050
 20
5.816364
  0
VERTEX
  8
0
  6
CONTINUOUS
 10
5.736861
 20
5.796254
  0
VERTEX
  8
0
  6
CONTINUOUS
 10
5.711607
 20
5.776612
  0
VERTEX
  8
0
  6
CONTINUOUS
 10
5.687288
 20
5.756970
  0
SEQEND
  8
0
  0
POLYLINE
  8
0
  6
CONTINUOUS
 66
     1
 40
0.000000
 41
0.000000
  0
VERTEX
  8
0
  6
CONTINUOUS
 10
5.687288
 20
5.756970
  0
VERTEX
  8
0
  6
CONTINUOUS
 10
5.695238
 20
5.776612
  0
VERTEX
  8
0
  6
CONTINUOUS
 10
5.703656
 20
5.799528
  0
VERTEX
  8
0
  6
CONTINUOUS
 10
5.712542
 20
5.824782
  0
VERTEX
  8
0
  6
CONTINUOUS
 10
5.720492
 20
5.853777
  0
VERTEX
  8
0
  6
CONTINUOUS
 10
5.727507
 20
5.886046
  0
VERTEX
  8
0
  6
CONTINUOUS
 10
5.732184
 20
5.921589
  0
VERTEX
  8
0
  6
CONTINUOUS
 10
5.734522
 20
5.961340
  0
VERTEX
  8
0
  6
CONTINUOUS
 10
5.733587
 20
6.004833
  0
SEQEND
  8
0
  0
POLYLINE
  8
0
  6
CONTINUOUS
 66
     1
 40
0.000000
 41
0.000000
  0
VERTEX
  8
0
  6
CONTINUOUS
 10
5.733587
 20
6.004833
  0
VERTEX
  8
0
  6
CONTINUOUS
 10
5.721895
 20
5.980982
  0
VERTEX
  8
0
  6
CONTINUOUS
 10
5.709268
 20
5.953390
  0
VERTEX
  8
0
  6
CONTINUOUS
 10
5.695706
 20
5.922056
  0
VERTEX
  8
0
  6
CONTINUOUS
 10
5.682144
 20
5.886514
  0
VERTEX
  8
0
  6
CONTINUOUS
 10
5.669049
 20
5.847230
  0
VERTEX
  8
0
  6
CONTINUOUS
 10
5.657825
 20
5.803269
  0
VERTEX
  8
0
  6
CONTINUOUS
 10
5.648004
 20
5.755567
  0
VERTEX
  8
0
  6
CONTINUOUS
 10
5.641457
 20
5.703189
  0
SEQEND
  8
0
  0
POLYLINE
  8
0
  6
CONTINUOUS
 66
     1
 40
0.000000
 41
0.000000
  0
VERTEX
  8
0
  6
CONTINUOUS
 10
5.641457
 20
5.703189
  0
VERTEX
  8
0
  6
CONTINUOUS
 10
5.716283
 20
5.732184
  0
VERTEX
  8
0
  6
CONTINUOUS
 10
5.774742
 20
5.764921
  0
VERTEX
  8
0
  6
CONTINUOUS
 10
5.819637
 20
5.799060
  0
VERTEX
  8
0
  6
CONTINUOUS
 10
5.852374
 20
5.834135
  0
VERTEX
  8
0
  6
CONTINUOUS
 10
5.874822
 20
5.866872
  0
VERTEX
  8
0
  6
CONTINUOUS
 10
5.889320
 20
5.897270
  0
VERTEX
  8
0
  6
CONTINUOUS
 10
5.898205
 20
5.922524
  0
VERTEX
  8
0
  6
CONTINUOUS
 10
5.902882
 20
5.941231
  0
SEQEND
  8
0
  0
POLYLINE
  8
0
  6
CONTINUOUS
 66
     1
 40
0.000000
 41
0.000000
  0
VERTEX
  8
0
  6
CONTINUOUS
 10
5.782224
 20
5.720960
  0
VERTEX
  8
0
  6
CONTINUOUS
 10
5.742940
 20
5.704124
  0
VERTEX
  8
0
  6
CONTINUOUS
 10
5.704592
 20
5.689626
  0
VERTEX
  8
0
  6
CONTINUOUS
 10
5.667178
 20
5.676532
  0
VERTEX
  8
0
  6
CONTINUOUS
 10
5.631636
 20
5.664840
  0
VERTEX
  8
0
  6
CONTINUOUS
 10
5.597496
 20
5.654551
  0
VERTEX
  8
0
  6
CONTINUOUS
 10
5.565227
 20
5.646133
  0
VERTEX
  8
0
  6
CONTINUOUS
 10
5.535296
 20
5.639118
  0
VERTEX
  8
0
  6
CONTINUOUS
 10
5.508172
 20
5.633974
  0
SEQEND
  8
0
  0
POLYLINE
  8
0
  6
CONTINUOUS
 66
     1
 40
0.000000
 41
0.000000
  0
VERTEX
  8
0
  6
CONTINUOUS
 10
5.508172
 20
5.633974
  0
VERTEX
  8
0
  6
CONTINUOUS
 10
5.544182
 20
5.667646
  0
VERTEX
  8
0
  6
CONTINUOUS
 10
5.571307
 20
5.698980
  0
VERTEX
  8
0
  6
CONTINUOUS
 10
5.591416
 20
5.727975
  0
VERTEX
  8
0
  6
CONTINUOUS
 10
5.605914
 20
5.756035
  0
VERTEX
  8
0
  6
CONTINUOUS
 10
5.615735
 20
5.783160
  0
VERTEX
  8
0
  6
CONTINUOUS
 10
5.622282
 20
5.809816
  0
VERTEX
  8
0
  6
CONTINUOUS
 10
5.627894
 20
5.836473
  0
VERTEX
  8
0
  6
CONTINUOUS
 10
5.633506
 20
5.864066
  0
SEQEND
  8
0
  0
POLYLINE
  8
0
  6
CONTINUOUS
 66
     1
 40
0.000000
 41
0.000000
  0
VERTEX
  8
0
  6
CONTINUOUS
 10
5.633506
 20
5.864066
  0
VERTEX
  8
0
  6
CONTINUOUS
 10
5.620879
 20
5.854712
  0
VERTEX
  8
0
  6
CONTINUOUS
 10
5.602173
 20
5.833667
  0
VERTEX
  8
0
  6
CONTINUOUS
 10
5.579257
 20
5.803269
  0
VERTEX
  8
0
  6
CONTINUOUS
 10
5.552600
 20
5.766791
  0
VERTEX
  8
0
  6
CONTINUOUS
 10
5.525008
 20
5.727040
  0
VERTEX
  8
0
  6
CONTINUOUS
 10
5.496948
 20
5.686820
  0
VERTEX
  8
0
  6
CONTINUOUS
 10
5.471226
 20
5.649407
  0
VERTEX
  8
0
  6
CONTINUOUS
 10
5.448778
 20
5.618541
  0
SEQEND
  8
0
  0
POLYLINE
  8
0
  6
CONTINUOUS
 66
     1
 40
0.000000
 41
0.000000
  0
VERTEX
  8
0
  6
CONTINUOUS
 10
5.448778
 20
5.618541
  0
VERTEX
  8
0
  6
CONTINUOUS
 10
5.504430
 20
5.608720
  0
VERTEX
  8
0
  6
CONTINUOUS
 10
5.554938
 20
5.605446
  0
VERTEX
  8
0
  6
CONTINUOUS
 10
5.600770
 20
5.608720
  0
VERTEX
  8
0
  6
CONTINUOUS
 10
5.642392
 20
5.617606
  0
VERTEX
  8
0
  6
CONTINUOUS
 10
5.680741
 20
5.633506
  0
VERTEX
  8
0
  6
CONTINUOUS
 10
5.716283
 20
5.655954
  0
VERTEX
  8
0
  6
CONTINUOUS
 10
5.749955
 20
5.684950
  0
VERTEX
  8
0
  6
CONTINUOUS
 10
5.782224
 20
5.720960
  0
SEQEND
  8
0
  0
POLYLINE
  8
0
  6
CONTINUOUS
 66
     1
 40
0.000000
 41
0.000000
  0
VERTEX
  8
0
  6
CONTINUOUS
 10
5.933748
 20
6.335006
  0
VERTEX
  8
0
  6
CONTINUOUS
 10
5.917847
 20
6.298528
  0
VERTEX
  8
0
  6
CONTINUOUS
 10
5.905220
 20
6.267662
  0
VERTEX
  8
0
  6
CONTINUOUS
 10
5.894932
 20
6.240537
  0
VERTEX
  8
0
  6
CONTINUOUS
 10
5.886046
 20
6.216218
  0
VERTEX
  8
0
  6
CONTINUOUS
 10
5.878096
 20
6.193303
  0
VERTEX
  8
0
  6
CONTINUOUS
 10
5.870613
 20
6.170855
  0
VERTEX
  8
0
  6
CONTINUOUS
 10
5.863130
 20
6.147939
  0
VERTEX
  8
0
  6
CONTINUOUS
 10
5.854245
 20
6.122685
  0
SEQEND
  8
0
  0
POLYLINE
  8
0
  6
CONTINUOUS
 66
     1
 40
0.000000
 41
0.000000
  0
VERTEX
  8
0
  6
CONTINUOUS
 10
5.854245
 20
6.122685
  0
VERTEX
  8
0
  6
CONTINUOUS
 10
5.850036
 20
6.143262
  0
VERTEX
  8
0
  6
CONTINUOUS
 10
5.844891
 20
6.162904
  0
VERTEX
  8
0
  6
CONTINUOUS
 10
5.838812
 20
6.182079
  0
VERTEX
  8
0
  6
CONTINUOUS
 10
5.831329
 20
6.201721
  0
VERTEX
  8
0
  6
CONTINUOUS
 10
5.821040
 20
6.222298
  0
VERTEX
  8
0
  6
CONTINUOUS
 10
5.807946
 20
6.244746
  0
VERTEX
  8
0
  6
CONTINUOUS
 10
5.791577
 20
6.270468
  0
VERTEX
  8
0
  6
CONTINUOUS
 10
5.771936
 20
6.299463
  0
SEQEND
  8
0
  0
POLYLINE
  8
0
  6
CONTINUOUS
 66
     1
 40
0.000000
 41
0.000000
  0
VERTEX
  8
0
  6
CONTINUOUS
 10
5.771936
 20
6.299463
  0
VERTEX
  8
0
  6
CONTINUOUS
 10
5.772871
 20
6.274677
  0
VERTEX
  8
0
  6
CONTINUOUS
 10
5.777080
 20
6.246617
  0
VERTEX
  8
0
  6
CONTINUOUS
 10
5.784563
 20
6.215283
  0
VERTEX
  8
0
  6
CONTINUOUS
 10
5.794851
 20
6.182079
  0
VERTEX
  8
0
  6
CONTINUOUS
 10
5.807010
 20
6.147471
  0
VERTEX
  8
0
  6
CONTINUOUS
 10
5.820573
 20
6.112396
  0
VERTEX
  8
0
  6
CONTINUOUS
 10
5.835538
 20
6.078257
  0
VERTEX
  8
0
  6
CONTINUOUS
 10
5.851439
 20
6.045988
  0
SEQEND
  8
0
  0
POLYLINE
  8
0
  6
CONTINUOUS
 66
     1
 40
0.000000
 41
0.000000
  0
VERTEX
  8
0
  6
CONTINUOUS
 10
5.851439
 20
6.045988
  0
VERTEX
  8
0
  6
CONTINUOUS
 10
5.884175
 20
6.091819
  0
VERTEX
  8
0
  6
CONTINUOUS
 10
5.908026
 20
6.135312
  0
VERTEX
  8
0
  6
CONTINUOUS
 10
5.923459
 20
6.176934
  0
VERTEX
  8
0
  6
CONTINUOUS
 10
5.932813
 20
6.215283
  0
VERTEX
  8
0
  6
CONTINUOUS
 10
5.937022
 20
6.250358
  0
VERTEX
  8
0
  6
CONTINUOUS
 10
5.937489
 20
6.282159
  0
VERTEX
  8
0
  6
CONTINUOUS
 10
5.936086
 20
6.310687
  0
VERTEX
  8
0
  6
CONTINUOUS
 10
5.933748
 20
6.335006
  0
SEQEND
  8
0
  0
POLYLINE
  8
0
  6
CONTINUOUS
 66
     1
 40
0.000000
 41
0.000000
  0
VERTEX
  8
0
  6
CONTINUOUS
 10
4.981112
 20
5.467485
  0
VERTEX
  8
0
  6
CONTINUOUS
 10
5.100835
 20
5.548391
  0
VERTEX
  8
0
  6
CONTINUOUS
 10
5.201383
 20
5.592819
  0
VERTEX
  8
0
  6
CONTINUOUS
 10
5.287433
 20
5.609655
  0
VERTEX
  8
0
  6
CONTINUOUS
 10
5.364131
 20
5.606849
  0
VERTEX
  8
0
  6
CONTINUOUS
 10
5.435684
 20
5.594222
  0
VERTEX
  8
0
  6
CONTINUOUS
 10
5.508172
 20
5.580192
  0
VERTEX
  8
0
  6
CONTINUOUS
 10
5.585337
 20
5.574580
  0
VERTEX
  8
0
  6
CONTINUOUS
 10
5.673258
 20
5.585337
  0
SEQEND
  8
0
  0
POLYLINE
  8
0
  6
CONTINUOUS
 66
     1
 40
0.000000
 41
0.000000
  0
VERTEX
  8
0
  6
CONTINUOUS
 10
5.673258
 20
5.585337
  0
VERTEX
  8
0
  6
CONTINUOUS
 10
5.632103
 20
5.558212
  0
VERTEX
  8
0
  6
CONTINUOUS
 10
5.591416
 20
5.539973
  0
VERTEX
  8
0
  6
CONTINUOUS
 10
5.550729
 20
5.530152
  0
VERTEX
  8
0
  6
CONTINUOUS
 10
5.510042
 20
5.526878
  0
VERTEX
  8
0
  6
CONTINUOUS
 10
5.470291
 20
5.529217
  0
VERTEX
  8
0
  6
CONTINUOUS
 10
5.431007
 20
5.535296
  0
VERTEX
  8
0
  6
CONTINUOUS
 10
5.392658
 20
5.544650
  0
VERTEX
  8
0
  6
CONTINUOUS
 10
5.355245
 20
5.555874
  0
SEQEND
  8
0
  0
POLYLINE
  8
0
  6
CONTINUOUS
 66
     1
 40
0.000000
 41
0.000000
  0
VERTEX
  8
0
  6
CONTINUOUS
 10
5.355245
 20
5.555874
  0
VERTEX
  8
0
  6
CONTINUOUS
 10
5.317832
 20
5.568501
  0
VERTEX
  8
0
  6
CONTINUOUS
 10
5.280418
 20
5.578789
  0
VERTEX
  8
0
  6
CONTINUOUS
 10
5.242070
 20
5.584869
  0
VERTEX
  8
0
  6
CONTINUOUS
 10
5.202786
 20
5.583466
  0
VERTEX
  8
0
  6
CONTINUOUS
 10
5.160696
 20
5.573177
  0
VERTEX
  8
0
  6
CONTINUOUS
 10
5.116735
 20
5.552132
  0
VERTEX
  8
0
  6
CONTINUOUS
 10
5.069969
 20
5.517525
  0
VERTEX
  8
0
  6
CONTINUOUS
 10
5.019461
 20
5.467485
  0
SEQEND
  8
0
  0
POLYLINE
  8
0
  6
CONTINUOUS
 66
     1
 40
0.000000
 41
0.000000
  0
VERTEX
  8
0
  6
CONTINUOUS
 10
5.019461
 20
5.467485
  0
VERTEX
  8
0
  6
CONTINUOUS
 10
5.016655
 20
5.468888
  0
VERTEX
  8
0
  6
CONTINUOUS
 10
5.015252
 20
5.469356
  0
VERTEX
  8
0
  6
CONTINUOUS
 10
5.014784
 20
5.469356
  0
VERTEX
  8
0
  6
CONTINUOUS
 10
5.015252
 20
5.468420
  0
VERTEX
  8
0
  6
CONTINUOUS
 10
5.015719
 20
5.467953
  0
VERTEX
  8
0
  6
CONTINUOUS
 10
5.016187
 20
5.467485
  0
VERTEX
  8
0
  6
CONTINUOUS
 10
5.016655
 20
5.467485
  0
SEQEND
  8
0
  0
POLYLINE
  8
0
  6
CONTINUOUS
 66
     1
 40
0.000000
 41
0.000000
  0
VERTEX
  8
0
  6
CONTINUOUS
 10
5.016655
 20
5.467485
  0
VERTEX
  8
0
  6
CONTINUOUS
 10
5.016187
 20
5.467485
  0
VERTEX
  8
0
  6
CONTINUOUS
 10
5.015719
 20
5.467485
  0
VERTEX
  8
0
  6
CONTINUOUS
 10
5.015252
 20
5.467485
  0
VERTEX
  8
0
  6
CONTINUOUS
 10
5.014784
 20
5.467485
  0
VERTEX
  8
0
  6
CONTINUOUS
 10
5.014316
 20
5.467485
  0
SEQEND
  8
0
  0
POLYLINE
  8
0
  6
CONTINUOUS
 66
     1
 40
0.000000
 41
0.000000
  0
VERTEX
  8
0
  6
CONTINUOUS
 10
5.014316
 20
5.467485
  0
VERTEX
  8
0
  6
CONTINUOUS
 10
5.013381
 20
5.467017
  0
VERTEX
  8
0
  6
CONTINUOUS
 10
5.011043
 20
5.467017
  0
VERTEX
  8
0
  6
CONTINUOUS
 10
5.007769
 20
5.467017
  0
VERTEX
  8
0
  6
CONTINUOUS
 10
5.003092
 20
5.467017
  0
VERTEX
  8
0
  6
CONTINUOUS
 10
4.997948
 20
5.467017
  0
VERTEX
  8
0
  6
CONTINUOUS
 10
4.992804
 20
5.467017
  0
VERTEX
  8
0
  6
CONTINUOUS
 10
4.986724
 20
5.467017
  0
VERTEX
  8
0
  6
CONTINUOUS
 10
4.981112
 20
5.467485
  0
SEQEND
  8
0
  0
POLYLINE
  8
0
  6
CONTINUOUS
 66
     1
 40
0.009821
 41
0.009821
  0
VERTEX
  8
0
  6
CONTINUOUS
 10
4.785160
 20
6.564162
  0
VERTEX
  8
0
  6
CONTINUOUS
 10
5.069033
 20
6.282159
  0
SEQEND
  8
0
  0
POLYLINE
  8
0
  6
CONTINUOUS
 66
     1
 40
0.009821
 41
0.009821
  0
VERTEX
  8
0
  6
CONTINUOUS
 10
4.628959
 20
6.204059
  0
VERTEX
  8
0
  6
CONTINUOUS
 10
4.639248
 20
6.099302
  0
VERTEX
  8
0
  6
CONTINUOUS
 10
4.670114
 20
6.001560
  0
VERTEX
  8
0
  6
CONTINUOUS
 10
4.719219
 20
5.913171
  0
VERTEX
  8
0
  6
CONTINUOUS
 10
4.783757
 20
5.836006
  0
VERTEX
  8
0
  6
CONTINUOUS
 10
4.861857
 20
5.772403
  0
VERTEX
  8
0
  6
CONTINUOUS
 10
4.951181
 20
5.724234
  0
VERTEX
  8
0
  6
CONTINUOUS
 10
5.050327
 20
5.693835
  0
VERTEX
  8
0
  6
CONTINUOUS
 10
5.156487
 20
5.683547
  0
SEQEND
  8
0
  0
POLYLINE
  8
0
  6
CONTINUOUS
 66
     1
 40
0.009821
 41
0.009821
  0
VERTEX
  8
0
  6
CONTINUOUS
 10
5.156487
 20
5.683547
  0
VERTEX
  8
0
  6
CONTINUOUS
 10
5.262179
 20
5.693835
  0
VERTEX
  8
0
  6
CONTINUOUS
 10
5.361325
 20
5.724234
  0
VERTEX
  8
0
  6
CONTINUOUS
 10
5.450649
 20
5.772403
  0
VERTEX
  8
0
  6
CONTINUOUS
 10
5.528749
 20
5.836006
  0
VERTEX
  8
0
  6
CONTINUOUS
 10
5.593287
 20
5.913171
  0
VERTEX
  8
0
  6
CONTINUOUS
 10
5.642392
 20
6.001560
  0
VERTEX
  8
0
  6
CONTINUOUS
 10
5.673258
 20
6.099302
  0
VERTEX
  8
0
  6
CONTINUOUS
 10
5.684014
 20
6.204059
  0
SEQEND
  8
0
  0
POLYLINE
  8
0
  6
CONTINUOUS
 66
     1
 40
0.009821
 41
0.009821
  0
VERTEX
  8
0
  6
CONTINUOUS
 10
5.684014
 20
6.204059
  0
VERTEX
  8
0
  6
CONTINUOUS
 10
5.673258
 20
6.308349
  0
VERTEX
  8
0
  6
CONTINUOUS
 10
5.642392
 20
6.406091
  0
VERTEX
  8
0
  6
CONTINUOUS
 10
5.593287
 20
6.494480
  0
VERTEX
  8
0
  6
CONTINUOUS
 10
5.528749
 20
6.571645
  0
VERTEX
  8
0
  6
CONTINUOUS
 10
5.450649
 20
6.635247
  0
VERTEX
  8
0
  6
CONTINUOUS
 10
5.361325
 20
6.683417
  0
VERTEX
  8
0
  6
CONTINUOUS
 10
5.262179
 20
6.713815
  0
VERTEX
  8
0
  6
CONTINUOUS
 10
5.156487
 20
6.724571
  0
SEQEND
  8
0
  0
POLYLINE
  8
0
  6
CONTINUOUS
 66
     1
 40
0.009821
 41
0.009821
  0
VERTEX
  8
0
  6
CONTINUOUS
 10
5.156487
 20
6.724571
  0
VERTEX
  8
0
  6
CONTINUOUS
 10
5.050327
 20
6.713815
  0
VERTEX
  8
0
  6
CONTINUOUS
 10
4.951181
 20
6.683417
  0
VERTEX
  8
0
  6
CONTINUOUS
 10
4.861857
 20
6.635247
  0
VERTEX
  8
0
  6
CONTINUOUS
 10
4.783757
 20
6.571645
  0
VERTEX
  8
0
  6
CONTINUOUS
 10
4.719219
 20
6.494480
  0
VERTEX
  8
0
  6
CONTINUOUS
 10
4.670114
 20
6.406091
  0
VERTEX
  8
0
  6
CONTINUOUS
 10
4.639248
 20
6.308349
  0
VERTEX
  8
0
  6
CONTINUOUS
 10
4.628959
 20
6.204059
  0
SEQEND
  8
0
  0
POLYLINE
  8
0
  6
CONTINUOUS
 66
     1
 40
0.009821
 41
0.009821
  0
VERTEX
  8
0
  6
CONTINUOUS
 10
4.739329
 20
6.197979
  0
VERTEX
  8
0
  6
CONTINUOUS
 10
4.741199
 20
6.156825
  0
VERTEX
  8
0
  6
CONTINUOUS
 10
4.747279
 20
6.116605
  0
VERTEX
  8
0
  6
CONTINUOUS
 10
4.757100
 20
6.077789
  0
VERTEX
  8
0
  6
CONTINUOUS
 10
4.770662
 20
6.040844
  0
VERTEX
  8
0
  6
CONTINUOUS
 10
4.787031
 20
6.005301
  0
VERTEX
  8
0
  6
CONTINUOUS
 10
4.807140
 20
5.971629
  0
VERTEX
  8
0
  6
CONTINUOUS
 10
4.842683
 20
5.925330
  0
VERTEX
  8
0
  6
CONTINUOUS
 10
4.869808
 20
5.897270
  0
VERTEX
  8
0
  6
CONTINUOUS
 10
4.914703
 20
5.860324
  0
VERTEX
  8
0
  6
CONTINUOUS
 10
4.947908
 20
5.838812
  0
VERTEX
  8
0
  6
CONTINUOUS
 10
5.001222
 20
5.813090
  0
VERTEX
  8
0
  6
CONTINUOUS
 10
5.038635
 20
5.799995
  0
VERTEX
  8
0
  6
CONTINUOUS
 10
5.077919
 20
5.790175
  0
VERTEX
  8
0
  6
CONTINUOUS
 10
5.118606
 20
5.784095
  0
VERTEX
  8
0
  6
CONTINUOUS
 10
5.160228
 20
5.782224
  0
VERTEX
  8
0
  6
CONTINUOUS
 10
5.201850
 20
5.784095
  0
VERTEX
  8
0
  6
CONTINUOUS
 10
5.242537
 20
5.790175
  0
VERTEX
  8
0
  6
CONTINUOUS
 10
5.281821
 20
5.799995
  0
VERTEX
  8
0
  6
CONTINUOUS
 10
5.319235
 20
5.813090
  0
VERTEX
  8
0
  6
CONTINUOUS
 10
5.372549
 20
5.838812
  0
VERTEX
  8
0
  6
CONTINUOUS
 10
5.405753
 20
5.860324
  0
VERTEX
  8
0
  6
CONTINUOUS
 10
5.450649
 20
5.897270
  0
VERTEX
  8
0
  6
CONTINUOUS
 10
5.477774
 20
5.925330
  0
VERTEX
  8
0
  6
CONTINUOUS
 10
5.513316
 20
5.971629
  0
VERTEX
  8
0
  6
CONTINUOUS
 10
5.533426
 20
6.005301
  0
VERTEX
  8
0
  6
CONTINUOUS
 10
5.557277
 20
6.059083
  0
VERTEX
  8
0
  6
CONTINUOUS
 10
5.568501
 20
6.096963
  0
VERTEX
  8
0
  6
CONTINUOUS
 10
5.576451
 20
6.136715
  0
VERTEX
  8
0
  6
CONTINUOUS
 10
5.580660
 20
6.177402
  0
VERTEX
  8
0
  6
CONTINUOUS
 10
5.580660
 20
6.218557
  0
VERTEX
  8
0
  6
CONTINUOUS
 10
5.576451
 20
6.259244
  0
VERTEX
  8
0
  6
CONTINUOUS
 10
5.568501
 20
6.298528
  0
VERTEX
  8
0
  6
CONTINUOUS
 10
5.557277
 20
6.336409
  0
VERTEX
  8
0
  6
CONTINUOUS
 10
5.533426
 20
6.390658
  0
VERTEX
  8
0
  6
CONTINUOUS
 10
5.502092
 20
6.440230
  0
VERTEX
  8
0
  6
CONTINUOUS
 10
5.477774
 20
6.470161
  0
VERTEX
  8
0
  6
CONTINUOUS
 10
5.450649
 20
6.498221
  0
VERTEX
  8
0
  6
CONTINUOUS
 10
5.405753
 20
6.535167
  0
VERTEX
  8
0
  6
CONTINUOUS
 10
5.372549
 20
6.556679
  0
VERTEX
  8
0
  6
CONTINUOUS
 10
5.319235
 20
6.582401
  0
VERTEX
  8
0
  6
CONTINUOUS
 10
5.281821
 20
6.595496
  0
VERTEX
  8
0
  6
CONTINUOUS
 10
5.242537
 20
6.605317
  0
VERTEX
  8
0
  6
CONTINUOUS
 10
5.201850
 20
6.611396
  0
VERTEX
  8
0
  6
CONTINUOUS
 10
5.160228
 20
6.613267
  0
VERTEX
  8
0
  6
CONTINUOUS
 10
5.118606
 20
6.611396
  0
VERTEX
  8
0
  6
CONTINUOUS
 10
5.077919
 20
6.605317
  0
VERTEX
  8
0
  6
CONTINUOUS
 10
5.038635
 20
6.595496
  0
VERTEX
  8
0
  6
CONTINUOUS
 10
5.001222
 20
6.582401
  0
VERTEX
  8
0
  6
CONTINUOUS
 10
4.947908
 20
6.556679
  0
VERTEX
  8
0
  6
CONTINUOUS
 10
4.914703
 20
6.535167
  0
VERTEX
  8
0
  6
CONTINUOUS
 10
4.869808
 20
6.498221
  0
VERTEX
  8
0
  6
CONTINUOUS
 10
4.842683
 20
6.470161
  0
VERTEX
  8
0
  6
CONTINUOUS
 10
4.818364
 20
6.440230
  0
VERTEX
  8
0
  6
CONTINUOUS
 10
4.787031
 20
6.390658
  0
VERTEX
  8
0
  6
CONTINUOUS
 10
4.763180
 20
6.336409
  0
VERTEX
  8
0
  6
CONTINUOUS
 10
4.747279
 20
6.279353
  0
VERTEX
  8
0
  6
CONTINUOUS
 10
4.741199
 20
6.239134
  0
VERTEX
  8
0
  6
CONTINUOUS
 10
4.739329
 20
6.197979
  0
SEQEND
  8
0
  0
POLYLINE
  8
0
  6
CONTINUOUS
 66
     1
 40
0.009821
 41
0.009821
  0
VERTEX
  8
0
  6
CONTINUOUS
 10
4.842215
 20
6.201253
  0
VERTEX
  8
0
  6
CONTINUOUS
 10
4.843618
 20
6.169919
  0
VERTEX
  8
0
  6
CONTINUOUS
 10
4.851569
 20
6.125023
  0
VERTEX
  8
0
  6
CONTINUOUS
 10
4.865599
 20
6.082466
  0
VERTEX
  8
0
  6
CONTINUOUS
 10
4.885241
 20
6.042714
  0
VERTEX
  8
0
  6
CONTINUOUS
 10
4.910494
 20
6.006704
  0
VERTEX
  8
0
  6
CONTINUOUS
 10
4.940425
 20
5.973967
  0
VERTEX
  8
0
  6
CONTINUOUS
 10
4.974097
 20
5.946375
  0
VERTEX
  8
0
  6
CONTINUOUS
 10
5.011978
 20
5.922992
  0
VERTEX
  8
0
  6
CONTINUOUS
 10
5.053133
 20
5.905220
  0
VERTEX
  8
0
  6
CONTINUOUS
 10
5.082128
 20
5.896802
  0
VERTEX
  8
0
  6
CONTINUOUS
 10
5.112059
 20
5.890723
  0
VERTEX
  8
0
  6
CONTINUOUS
 10
5.142925
 20
5.887917
  0
VERTEX
  8
0
  6
CONTINUOUS
 10
5.174726
 20
5.887917
  0
VERTEX
  8
0
  6
CONTINUOUS
 10
5.205592
 20
5.890723
  0
VERTEX
  8
0
  6
CONTINUOUS
 10
5.250488
 20
5.900544
  0
VERTEX
  8
0
  6
CONTINUOUS
 10
5.292578
 20
5.916444
  0
VERTEX
  8
0
  6
CONTINUOUS
 10
5.331394
 20
5.937957
  0
VERTEX
  8
0
  6
CONTINUOUS
 10
5.366937
 20
5.964146
  0
VERTEX
  8
0
  6
CONTINUOUS
 10
5.398270
 20
5.995480
  0
VERTEX
  8
0
  6
CONTINUOUS
 10
5.424927
 20
6.030087
  0
VERTEX
  8
0
  6
CONTINUOUS
 10
5.446440
 20
6.068904
  0
VERTEX
  8
0
  6
CONTINUOUS
 10
5.462341
 20
6.110526
  0
VERTEX
  8
0
  6
CONTINUOUS
 10
5.472629
 20
6.154954
  0
VERTEX
  8
0
  6
CONTINUOUS
 10
5.475435
 20
6.185352
  0
VERTEX
  8
0
  6
CONTINUOUS
 10
5.475435
 20
6.216686
  0
VERTEX
  8
0
  6
CONTINUOUS
 10
5.472629
 20
6.247552
  0
VERTEX
  8
0
  6
CONTINUOUS
 10
5.466550
 20
6.277483
  0
VERTEX
  8
0
  6
CONTINUOUS
 10
5.452520
 20
6.319573
  0
VERTEX
  8
0
  6
CONTINUOUS
 10
5.439893
 20
6.346697
  0
VERTEX
  8
0
  6
CONTINUOUS
 10
5.416509
 20
6.384111
  0
VERTEX
  8
0
  6
CONTINUOUS
 10
5.387982
 20
6.417782
  0
VERTEX
  8
0
  6
CONTINUOUS
 10
5.355245
 20
6.447245
  0
VERTEX
  8
0
  6
CONTINUOUS
 10
5.318767
 20
6.472032
  0
VERTEX
  8
0
  6
CONTINUOUS
 10
5.292578
 20
6.485594
  0
VERTEX
  8
0
  6
CONTINUOUS
 10
5.250488
 20
6.501495
  0
VERTEX
  8
0
  6
CONTINUOUS
 10
5.205592
 20
6.511316
  0
VERTEX
  8
0
  6
CONTINUOUS
 10
5.174726
 20
6.514122
  0
VERTEX
  8
0
  6
CONTINUOUS
 10
5.142925
 20
6.514122
  0
VERTEX
  8
0
  6
CONTINUOUS
 10
5.112059
 20
6.511316
  0
VERTEX
  8
0
  6
CONTINUOUS
 10
5.067163
 20
6.501495
  0
VERTEX
  8
0
  6
CONTINUOUS
 10
5.025540
 20
6.485594
  0
VERTEX
  8
0
  6
CONTINUOUS
 10
4.986256
 20
6.464081
  0
VERTEX
  8
0
  6
CONTINUOUS
 10
4.951181
 20
6.437892
  0
VERTEX
  8
0
  6
CONTINUOUS
 10
4.919848
 20
6.407026
  0
VERTEX
  8
0
  6
CONTINUOUS
 10
4.893191
 20
6.371951
  0
VERTEX
  8
0
  6
CONTINUOUS
 10
4.871678
 20
6.333135
  0
VERTEX
  8
0
  6
CONTINUOUS
 10
4.855778
 20
6.291513
  0
VERTEX
  8
0
  6
CONTINUOUS
 10
4.848295
 20
6.262517
  0
VERTEX
  8
0
  6
CONTINUOUS
 10
4.843618
 20
6.232119
  0
VERTEX
  8
0
  6
CONTINUOUS
 10
4.842215
 20
6.201253
  0
SEQEND
  8
0
  0
POLYLINE
  8
0
  6
CONTINUOUS
 66
     1
 40
0.009821
 41
0.009821
  0
VERTEX
  8
0
  6
CONTINUOUS
 10
4.949778
 20
6.204527
  0
VERTEX
  8
0
  6
CONTINUOUS
 10
4.950714
 20
6.183949
  0
VERTEX
  8
0
  6
CONTINUOUS
 10
4.955858
 20
6.154486
  0
VERTEX
  8
0
  6
CONTINUOUS
 10
4.961470
 20
6.135780
  0
VERTEX
  8
0
  6
CONTINUOUS
 10
4.973629
 20
6.109123
  0
VERTEX
  8
0
  6
CONTINUOUS
 10
4.988595
 20
6.084337
  0
VERTEX
  8
0
  6
CONTINUOUS
 10
5.007301
 20
6.062356
  0
VERTEX
  8
0
  6
CONTINUOUS
 10
5.036297
 20
6.037102
  0
VERTEX
  8
0
  6
CONTINUOUS
 10
5.069969
 20
6.017928
  0
VERTEX
  8
0
  6
CONTINUOUS
 10
5.088208
 20
6.010445
  0
VERTEX
  8
0
  6
CONTINUOUS
 10
5.116735
 20
6.002495
  0
VERTEX
  8
0
  6
CONTINUOUS
 10
5.136845
 20
5.999689
  0
VERTEX
  8
0
  6
CONTINUOUS
 10
5.157422
 20
5.998754
  0
VERTEX
  8
0
  6
CONTINUOUS
 10
5.188288
 20
6.001092
  0
VERTEX
  8
0
  6
CONTINUOUS
 10
5.217751
 20
6.007639
  0
VERTEX
  8
0
  6
CONTINUOUS
 10
5.253761
 20
6.022137
  0
VERTEX
  8
0
  6
CONTINUOUS
 10
5.279015
 20
6.037102
  0
VERTEX
  8
0
  6
CONTINUOUS
 10
5.308011
 20
6.062356
  0
VERTEX
  8
0
  6
CONTINUOUS
 10
5.331862
 20
6.092287
  0
VERTEX
  8
0
  6
CONTINUOUS
 10
5.346359
 20
6.118008
  0
VERTEX
  8
0
  6
CONTINUOUS
 10
5.353842
 20
6.135780
  0
VERTEX
  8
0
  6
CONTINUOUS
 10
5.359454
 20
6.154486
  0
VERTEX
  8
0
  6
CONTINUOUS
 10
5.364598
 20
6.183949
  0
VERTEX
  8
0
  6
CONTINUOUS
 10
5.365066
 20
6.214815
  0
VERTEX
  8
0
  6
CONTINUOUS
 10
5.361325
 20
6.244746
  0
VERTEX
  8
0
  6
CONTINUOUS
 10
5.353842
 20
6.272806
  0
VERTEX
  8
0
  6
CONTINUOUS
 10
5.346359
 20
6.291045
  0
VERTEX
  8
0
  6
CONTINUOUS
 10
5.326717
 20
6.324249
  0
VERTEX
  8
0
  6
CONTINUOUS
 10
5.308011
 20
6.346230
  0
VERTEX
  8
0
  6
CONTINUOUS
 10
5.279015
 20
6.371484
  0
VERTEX
  8
0
  6
CONTINUOUS
 10
5.245343
 20
6.390658
  0
VERTEX
  8
0
  6
CONTINUOUS
 10
5.217751
 20
6.400946
  0
VERTEX
  8
0
  6
CONTINUOUS
 10
5.188288
 20
6.407494
  0
VERTEX
  8
0
  6
CONTINUOUS
 10
5.157422
 20
6.409832
  0
VERTEX
  8
0
  6
CONTINUOUS
 10
5.126556
 20
6.407494
  0
VERTEX
  8
0
  6
CONTINUOUS
 10
5.106914
 20
6.403752
  0
VERTEX
  8
0
  6
CONTINUOUS
 10
5.078854
 20
6.394399
  0
VERTEX
  8
0
  6
CONTINUOUS
 10
5.052665
 20
6.381772
  0
VERTEX
  8
0
  6
CONTINUOUS
 10
5.036297
 20
6.371484
  0
VERTEX
  8
0
  6
CONTINUOUS
 10
5.007301
 20
6.346230
  0
VERTEX
  8
0
  6
CONTINUOUS
 10
4.983450
 20
6.316299
  0
VERTEX
  8
0
  6
CONTINUOUS
 10
4.965211
 20
6.282159
  0
VERTEX
  8
0
  6
CONTINUOUS
 10
4.953520
 20
6.244746
  0
VERTEX
  8
0
  6
CONTINUOUS
 10
4.950246
 20
6.214815
  0
VERTEX
  8
0
  6
CONTINUOUS
 10
4.949778
 20
6.204527
  0
SEQEND
  8
0
  0
POLYLINE
  8
0
  6
CONTINUOUS
 66
     1
 40
0.009821
 41
0.009821
  0
VERTEX
  8
0
  6
CONTINUOUS
 10
5.160228
 20
6.719895
  0
VERTEX
  8
0
  6
CONTINUOUS
 10
5.160228
 20
6.295722
  0
SEQEND
  8
0
  0
POLYLINE
  8
0
  6
CONTINUOUS
 66
     1
 40
0.009821
 41
0.009821
  0
VERTEX
  8
0
  6
CONTINUOUS
 10
4.632701
 20
6.203591
  0
VERTEX
  8
0
  6
CONTINUOUS
 10
4.899271
 20
6.202188
  0
SEQEND
  8
0
  0
POLYLINE
  8
0
  6
CONTINUOUS
 66
     1
 40
0.009821
 41
0.009821
  0
VERTEX
  8
0
  6
CONTINUOUS
 10
5.103173
 20
6.145601
  0
VERTEX
  8
0
  6
CONTINUOUS
 10
4.790304
 20
5.836473
  0
SEQEND
  8
0
  0
POLYLINE
  8
0
  6
CONTINUOUS
 66
     1
 40
0.009821
 41
0.009821
  0
VERTEX
  8
0
  6
CONTINUOUS
 10
5.160228
 20
5.905220
  0
VERTEX
  8
0
  6
CONTINUOUS
 10
5.160228
 20
5.688691
  0
SEQEND
  8
0
  0
POLYLINE
  8
0
  6
CONTINUOUS
 66
     1
 40
0.009821
 41
0.009821
  0
VERTEX
  8
0
  6
CONTINUOUS
 10
5.063889
 20
6.201253
  0
VERTEX
  8
0
  6
CONTINUOUS
 10
5.066695
 20
6.178337
  0
VERTEX
  8
0
  6
CONTINUOUS
 10
5.074645
 20
6.157292
  0
VERTEX
  8
0
  6
CONTINUOUS
 10
5.087272
 20
6.139053
  0
VERTEX
  8
0
  6
CONTINUOUS
 10
5.104108
 20
6.124088
  0
VERTEX
  8
0
  6
CONTINUOUS
 10
5.123750
 20
6.113332
  0
VERTEX
  8
0
  6
CONTINUOUS
 10
5.146198
 20
6.107252
  0
VERTEX
  8
0
  6
CONTINUOUS
 10
5.164905
 20
6.106317
  0
VERTEX
  8
0
  6
CONTINUOUS
 10
5.188288
 20
6.110526
  0
VERTEX
  8
0
  6
CONTINUOUS
 10
5.205124
 20
6.117073
  0
VERTEX
  8
0
  6
CONTINUOUS
 10
5.226637
 20
6.132506
  0
VERTEX
  8
0
  6
CONTINUOUS
 10
5.241134
 20
6.149810
  0
VERTEX
  8
0
  6
CONTINUOUS
 10
5.249552
 20
6.165243
  0
VERTEX
  8
0
  6
CONTINUOUS
 10
5.255632
 20
6.187223
  0
VERTEX
  8
0
  6
CONTINUOUS
 10
5.256567
 20
6.205930
  0
VERTEX
  8
0
  6
CONTINUOUS
 10
5.252358
 20
6.228845
  0
VERTEX
  8
0
  6
CONTINUOUS
 10
5.245811
 20
6.245214
  0
VERTEX
  8
0
  6
CONTINUOUS
 10
5.229910
 20
6.266726
  0
VERTEX
  8
0
  6
CONTINUOUS
 10
5.208865
 20
6.283095
  0
VERTEX
  8
0
  6
CONTINUOUS
 10
5.188288
 20
6.291513
  0
VERTEX
  8
0
  6
CONTINUOUS
 10
5.164905
 20
6.295722
  0
VERTEX
  8
0
  6
CONTINUOUS
 10
5.146198
 20
6.294786
  0
VERTEX
  8
0
  6
CONTINUOUS
 10
5.127959
 20
6.290577
  0
VERTEX
  8
0
  6
CONTINUOUS
 10
5.107850
 20
6.280756
  0
VERTEX
  8
0
  6
CONTINUOUS
 10
5.087272
 20
6.263453
  0
VERTEX
  8
0
  6
CONTINUOUS
 10
5.072775
 20
6.241005
  0
VERTEX
  8
0
  6
CONTINUOUS
 10
5.064824
 20
6.215283
  0
VERTEX
  8
0
  6
CONTINUOUS
 10
5.063889
 20
6.201253
  0
SEQEND
  8
0
  0
POLYLINE
  8
0
  6
CONTINUOUS
 66
     1
 40
0.009821
 41
0.009821
  0
VERTEX
  8
0
  6
CONTINUOUS
 10
5.354310
 20
6.009978
  0
VERTEX
  8
0
  6
CONTINUOUS
 10
5.525475
 20
5.836473
  0
SEQEND
  8
0
  0
POLYLINE
  8
0
  6
CONTINUOUS
 66
     1
 40
0.009821
 41
0.009821
  0
VERTEX
  8
0
  6
CONTINUOUS
 10
5.382370
 20
6.197044
  0
VERTEX
  8
0
  6
CONTINUOUS
 10
5.682611
 20
6.196109
  0
SEQEND
  8
0
  0
POLYLINE
  8
0
  6
CONTINUOUS
 66
     1
 40
0.009821
 41
0.009821
  0
VERTEX
  8
0
  6
CONTINUOUS
 10
5.530620
 20
6.560421
  0
VERTEX
  8
0
  6
CONTINUOUS
 10
5.313623
 20
6.343891
  0
SEQEND
  8
0
  0
POLYLINE
  8
0
  6
CONTINUOUS
 66
     1
 40
0.009821
 41
0.009821
  0
VERTEX
  8
0
  6
CONTINUOUS
 10
5.359922
 20
6.619347
  0
VERTEX
  8
0
  6
CONTINUOUS
 10
5.355713
 20
6.625426
  0
VERTEX
  8
0
  6
CONTINUOUS
 10
5.316896
 20
6.613267
  0
VERTEX
  8
0
  6
CONTINUOUS
 10
5.318299
 20
6.596899
  0
VERTEX
  8
0
  6
CONTINUOUS
 10
5.325314
 20
6.607187
  0
VERTEX
  8
0
  6
CONTINUOUS
 10
5.330926
 20
6.608590
  0
VERTEX
  8
0
  6
CONTINUOUS
 10
5.333265
 20
6.617476
  0
VERTEX
  8
0
  6
CONTINUOUS
 10
5.341215
 20
6.613267
  0
VERTEX
  8
0
  6
CONTINUOUS
 10
5.360389
 20
6.618879
  0
VERTEX
  8
0
  6
CONTINUOUS
 10
5.359922
 20
6.619347
  0
SEQEND
  8
0
  0
POLYLINE
  8
0
  6
CONTINUOUS
 66
     1
 40
0.009821
 41
0.009821
  0
VERTEX
  8
0
  6
CONTINUOUS
 10
5.408559
 20
6.387852
  0
VERTEX
  8
0
  6
CONTINUOUS
 10
5.417445
 20
6.375693
  0
VERTEX
  8
0
  6
CONTINUOUS
 10
5.422121
 20
6.391593
  0
VERTEX
  8
0
  6
CONTINUOUS
 10
5.435216
 20
6.375693
  0
VERTEX
  8
0
  6
CONTINUOUS
 10
5.415574
 20
6.353712
  0
VERTEX
  8
0
  6
CONTINUOUS
 10
5.421186
 20
6.346697
  0
VERTEX
  8
0
  6
CONTINUOUS
 10
5.442231
 20
6.345294
  0
VERTEX
  8
0
  6
CONTINUOUS
 10
5.465147
 20
6.321911
  0
VERTEX
  8
0
  6
CONTINUOUS
 10
5.469823
 20
6.325185
  0
VERTEX
  8
0
  6
CONTINUOUS
 10
5.460002
 20
6.342488
  0
VERTEX
  8
0
  6
CONTINUOUS
 10
5.445037
 20
6.360260
  0
VERTEX
  8
0
  6
CONTINUOUS
 10
5.413236
 20
6.369613
  0
VERTEX
  8
0
  6
CONTINUOUS
 10
5.400609
 20
6.385981
  0
VERTEX
  8
0
  6
CONTINUOUS
 10
5.408559
 20
6.387852
  0
SEQEND
  8
0
  0
POLYLINE
  8
0
  6
CONTINUOUS
 66
     1
 40
0.009821
 41
0.009821
  0
VERTEX
  8
0
  6
CONTINUOUS
 10
5.427733
 20
5.875757
  0
VERTEX
  8
0
  6
CONTINUOUS
 10
5.414639
 20
5.889320
  0
VERTEX
  8
0
  6
CONTINUOUS
 10
5.425863
 20
5.916444
  0
VERTEX
  8
0
  6
CONTINUOUS
 10
5.427733
 20
5.922992
  0
VERTEX
  8
0
  6
CONTINUOUS
 10
5.446440
 20
5.936554
  0
VERTEX
  8
0
  6
CONTINUOUS
 10
5.455793
 20
5.912703
  0
VERTEX
  8
0
  6
CONTINUOUS
 10
5.446440
 20
5.884175
  0
VERTEX
  8
0
  6
CONTINUOUS
 10
5.425863
 20
5.875757
  0
VERTEX
  8
0
  6
CONTINUOUS
 10
5.427733
 20
5.875757
  0
SEQEND
  8
0
  0
SOLID
  8
0
 10
5.422121
 20
6.593157
 11
5.428669
 21
6.581466
 12
5.402947
 22
6.586610
 13
5.418848
 23
6.570242
  0
POLYLINE
  8
0
  6
CONTINUOUS
 66
     1
 40
0.009821
 41
0.009821
  0
VERTEX
  8
0
  6
CONTINUOUS
 10
5.422121
 20
6.593157
  0
VERTEX
  8
0
  6
CONTINUOUS
 10
5.428669
 20
6.581466
  0
VERTEX
  8
0
  6
CONTINUOUS
 10
5.418848
 20
6.570242
  0
VERTEX
  8
0
  6
CONTINUOUS
 10
5.402947
 20
6.586610
  0
VERTEX
  8
0
  6
CONTINUOUS
 10
5.422121
 20
6.593157
  0
SEQEND
  8
0
  0
POLYLINE
  8
0
  6
CONTINUOUS
 66
     1
 40
0.009821
 41
0.009821
  0
VERTEX
  8
0
  6
CONTINUOUS
 10
5.291175
 20
6.490271
  0
VERTEX
  8
0
  6
CONTINUOUS
 10
5.335135
 20
6.458469
  0
VERTEX
  8
0
  6
CONTINUOUS
 10
5.337006
 20
6.435086
  0
VERTEX
  8
0
  6
CONTINUOUS
 10
5.356648
 20
6.413106
  0
VERTEX
  8
0
  6
CONTINUOUS
 10
5.343553
 20
6.402817
  0
VERTEX
  8
0
  6
CONTINUOUS
 10
5.300996
 20
6.438360
  0
VERTEX
  8
0
  6
CONTINUOUS
 10
5.291175
 20
6.490271
  0
SEQEND
  8
0
  0
POLYLINE
  8
0
  6
CONTINUOUS
 66
     1
 40
0.009821
 41
0.009821
  0
VERTEX
  8
0
  6
CONTINUOUS
 10
5.523605
 20
6.360727
  0
VERTEX
  8
0
  6
CONTINUOUS
 10
5.505833
 20
6.362130
  0
VERTEX
  8
0
  6
CONTINUOUS
 10
5.481983
 20
6.384578
  0
VERTEX
  8
0
  6
CONTINUOUS
 10
5.445505
 20
6.409364
  0
VERTEX
  8
0
  6
CONTINUOUS
 10
5.402947
 20
6.431345
  0
VERTEX
  8
0
  6
CONTINUOUS
 10
5.394529
 20
6.443036
  0
VERTEX
  8
0
  6
CONTINUOUS
 10
5.412300
 20
6.461275
  0
VERTEX
  8
0
  6
CONTINUOUS
 10
5.400609
 20
6.482788
  0
VERTEX
  8
0
  6
CONTINUOUS
 10
5.352439
 20
6.462678
  0
VERTEX
  8
0
  6
CONTINUOUS
 10
5.328120
 20
6.545455
  0
VERTEX
  8
0
  6
CONTINUOUS
 10
5.329991
 20
6.559485
  0
VERTEX
  8
0
  6
CONTINUOUS
 10
5.383305
 20
6.579127
  0
VERTEX
  8
0
  6
CONTINUOUS
 10
5.402947
 20
6.569306
  0
VERTEX
  8
0
  6
CONTINUOUS
 10
5.415574
 20
6.559485
  0
VERTEX
  8
0
  6
CONTINUOUS
 10
5.427266
 20
6.559953
  0
VERTEX
  8
0
  6
CONTINUOUS
 10
5.455326
 20
6.532828
  0
VERTEX
  8
0
  6
CONTINUOUS
 10
5.454390
 20
6.491674
  0
VERTEX
  8
0
  6
CONTINUOUS
 10
5.562421
 20
6.393464
  0
VERTEX
  8
0
  6
CONTINUOUS
 10
5.523605
 20
6.360727
  0
SEQEND
  8
0
  0
POLYLINE
  8
0
  6
CONTINUOUS
 66
     1
 40
0.009821
 41
0.009821
  0
VERTEX
  8
0
  6
CONTINUOUS
 10
4.903947
 20
6.172258
  0
VERTEX
  8
0
  6
CONTINUOUS
 10
4.903947
 20
6.171322
  0
VERTEX
  8
0
  6
CONTINUOUS
 10
4.904415
 20
6.168984
  0
VERTEX
  8
0
  6
CONTINUOUS
 10
4.905350
 20
6.165710
  0
VERTEX
  8
0
  6
CONTINUOUS
 10
4.906753
 20
6.161969
  0
VERTEX
  8
0
  6
CONTINUOUS
 10
4.907688
 20
6.158228
  0
VERTEX
  8
0
  6
CONTINUOUS
 10
4.908624
 20
6.154954
  0
VERTEX
  8
0
  6
CONTINUOUS
 10
4.909091
 20
6.152616
  0
VERTEX
  8
0
  6
CONTINUOUS
 10
4.909559
 20
6.152148
  0
SEQEND
  8
0
  0
POLYLINE
  8
0
  6
CONTINUOUS
 66
     1
 40
0.009821
 41
0.009821
  0
VERTEX
  8
0
  6
CONTINUOUS
 10
4.909559
 20
6.152148
  0
VERTEX
  8
0
  6
CONTINUOUS
 10
4.909559
 20
6.151213
  0
VERTEX
  8
0
  6
CONTINUOUS
 10
4.910962
 20
6.149810
  0
VERTEX
  8
0
  6
CONTINUOUS
 10
4.912365
 20
6.147939
  0
VERTEX
  8
0
  6
CONTINUOUS
 10
4.914236
 20
6.145601
  0
VERTEX
  8
0
  6
CONTINUOUS
 10
4.916106
 20
6.143262
  0
VERTEX
  8
0
  6
CONTINUOUS
 10
4.917509
 20
6.141392
  0
VERTEX
  8
0
  6
CONTINUOUS
 10
4.918912
 20
6.139989
  0
VERTEX
  8
0
  6
CONTINUOUS
 10
4.919380
 20
6.139521
  0
SEQEND
  8
0
  0
POLYLINE
  8
0
  6
CONTINUOUS
 66
     1
 40
0.009821
 41
0.009821
  0
VERTEX
  8
0
  6
CONTINUOUS
 10
4.919380
 20
6.139521
  0
VERTEX
  8
0
  6
CONTINUOUS
 10
4.918912
 20
6.139053
  0
VERTEX
  8
0
  6
CONTINUOUS
 10
4.917509
 20
6.139053
  0
VERTEX
  8
0
  6
CONTINUOUS
 10
4.916106
 20
6.139053
  0
VERTEX
  8
0
  6
CONTINUOUS
 10
4.914236
 20
6.138586
  0
VERTEX
  8
0
  6
CONTINUOUS
 10
4.912365
 20
6.138118
  0
VERTEX
  8
0
  6
CONTINUOUS
 10
4.910962
 20
6.138118
  0
VERTEX
  8
0
  6
CONTINUOUS
 10
4.909559
 20
6.138118
  0
SEQEND
  8
0
  0
POLYLINE
  8
0
  6
CONTINUOUS
 66
     1
 40
0.009821
 41
0.009821
  0
VERTEX
  8
0
  6
CONTINUOUS
 10
4.909559
 20
6.138118
  0
VERTEX
  8
0
  6
CONTINUOUS
 10
4.909559
 20
6.139053
  0
VERTEX
  8
0
  6
CONTINUOUS
 10
4.909559
 20
6.139989
  0
VERTEX
  8
0
  6
CONTINUOUS
 10
4.909559
 20
6.140924
  0
VERTEX
  8
0
  6
CONTINUOUS
 10
4.909559
 20
6.141859
  0
VERTEX
  8
0
  6
CONTINUOUS
 10
4.909559
 20
6.142795
  0
VERTEX
  8
0
  6
CONTINUOUS
 10
4.909559
 20
6.143730
  0
VERTEX
  8
0
  6
CONTINUOUS
 10
4.909559
 20
6.144198
  0
SEQEND
  8
0
  0
POLYLINE
  8
0
  6
CONTINUOUS
 66
     1
 40
0.009821
 41
0.009821
  0
VERTEX
  8
0
  6
CONTINUOUS
 10
4.909559
 20
6.144198
  0
VERTEX
  8
0
  6
CONTINUOUS
 10
4.909559
 20
6.144665
  0
VERTEX
  8
0
  6
CONTINUOUS
 10
4.910027
 20
6.146068
  0
VERTEX
  8
0
  6
CONTINUOUS
 10
4.910962
 20
6.148407
  0
VERTEX
  8
0
  6
CONTINUOUS
 10
4.912365
 20
6.150745
  0
VERTEX
  8
0
  6
CONTINUOUS
 10
4.913300
 20
6.153083
  0
VERTEX
  8
0
  6
CONTINUOUS
 10
4.914236
 20
6.155422
  0
VERTEX
  8
0
  6
CONTINUOUS
 10
4.914703
 20
6.156825
  0
VERTEX
  8
0
  6
CONTINUOUS
 10
4.915171
 20
6.157760
  0
SEQEND
  8
0
  0
POLYLINE
  8
0
  6
CONTINUOUS
 66
     1
 40
0.009821
 41
0.009821
  0
VERTEX
  8
0
  6
CONTINUOUS
 10
4.915171
 20
6.157760
  0
VERTEX
  8
0
  6
CONTINUOUS
 10
4.914703
 20
6.158228
  0
VERTEX
  8
0
  6
CONTINUOUS
 10
4.914236
 20
6.160098
  0
VERTEX
  8
0
  6
CONTINUOUS
 10
4.913300
 20
6.163372
  0
VERTEX
  8
0
  6
CONTINUOUS
 10
4.912365
 20
6.166646
  0
VERTEX
  8
0
  6
CONTINUOUS
 10
4.910962
 20
6.169452
  0
VERTEX
  8
0
  6
CONTINUOUS
 10
4.910027
 20
6.172725
  0
VERTEX
  8
0
  6
CONTINUOUS
 10
4.909559
 20
6.174596
  0
VERTEX
  8
0
  6
CONTINUOUS
 10
4.909559
 20
6.175531
  0
SEQEND
  8
0
  0
POLYLINE
  8
0
  6
CONTINUOUS
 66
     1
 40
0.009821
 41
0.009821
  0
VERTEX
  8
0
  6
CONTINUOUS
 10
4.909559
 20
6.175531
  0
VERTEX
  8
0
  6
CONTINUOUS
 10
4.909091
 20
6.175064
  0
VERTEX
  8
0
  6
CONTINUOUS
 10
4.908624
 20
6.174596
  0
VERTEX
  8
0
  6
CONTINUOUS
 10
4.907688
 20
6.174128
  0
VERTEX
  8
0
  6
CONTINUOUS
 10
4.906753
 20
6.173661
  0
VERTEX
  8
0
  6
CONTINUOUS
 10
4.905350
 20
6.173193
  0
VERTEX
  8
0
  6
CONTINUOUS
 10
4.904415
 20
6.172725
  0
VERTEX
  8
0
  6
CONTINUOUS
 10
4.903947
 20
6.172258
  0
SEQEND
  8
0
  0
POLYLINE
  8
0
  6
CONTINUOUS
 66
     1
 40
0.009821
 41
0.009821
  0
VERTEX
  8
0
  6
CONTINUOUS
 10
4.679467
 20
6.028217
  0
VERTEX
  8
0
  6
CONTINUOUS
 10
4.676194
 20
6.047859
  0
VERTEX
  8
0
  6
CONTINUOUS
 10
4.686015
 20
6.074983
  0
VERTEX
  8
0
  6
CONTINUOUS
 10
4.696771
 20
6.084804
  0
VERTEX
  8
0
  6
CONTINUOUS
 10
4.722025
 20
6.096963
  0
VERTEX
  8
0
  6
CONTINUOUS
 10
4.758503
 20
6.096028
  0
VERTEX
  8
0
  6
CONTINUOUS
 10
4.789369
 20
6.106784
  0
VERTEX
  8
0
  6
CONTINUOUS
 10
4.795916
 20
6.133441
  0
VERTEX
  8
0
  6
CONTINUOUS
 10
4.826315
 20
6.163840
  0
VERTEX
  8
0
  6
CONTINUOUS
 10
4.854375
 20
6.166178
  0
VERTEX
  8
0
  6
CONTINUOUS
 10
4.871678
 20
6.162904
  0
VERTEX
  8
0
  6
CONTINUOUS
 10
4.867469
 20
6.172725
  0
VERTEX
  8
0
  6
CONTINUOUS
 10
4.881499
 20
6.222298
  0
VERTEX
  8
0
  6
CONTINUOUS
 10
4.895062
 20
6.244278
  0
VERTEX
  8
0
  6
CONTINUOUS
 10
4.889917
 20
6.245214
  0
VERTEX
  8
0
  6
CONTINUOUS
 10
4.909091
 20
6.277950
  0
VERTEX
  8
0
  6
CONTINUOUS
 10
4.929669
 20
6.295722
  0
VERTEX
  8
0
  6
CONTINUOUS
 10
4.959132
 20
6.313025
  0
VERTEX
  8
0
  6
CONTINUOUS
 10
5.009172
 20
6.312090
  0
VERTEX
  8
0
  6
CONTINUOUS
 10
5.022734
 20
6.301334
  0
VERTEX
  8
0
  6
CONTINUOUS
 10
5.050327
 20
6.295722
  0
VERTEX
  8
0
  6
CONTINUOUS
 10
5.091481
 20
6.304607
  0
VERTEX
  8
0
  6
CONTINUOUS
 10
5.114865
 20
6.319573
  0
VERTEX
  8
0
  6
CONTINUOUS
 10
5.143392
 20
6.298060
  0
VERTEX
  8
0
  6
CONTINUOUS
 10
5.147134
 20
6.287771
  0
VERTEX
  8
0
  6
CONTINUOUS
 10
5.133104
 20
6.275612
  0
VERTEX
  8
0
  6
CONTINUOUS
 10
5.113929
 20
6.268129
  0
VERTEX
  8
0
  6
CONTINUOUS
 10
5.084934
 20
6.234457
  0
VERTEX
  8
0
  6
CONTINUOUS
 10
5.086805
 20
6.193770
  0
VERTEX
  8
0
  6
CONTINUOUS
 10
5.078387
 20
6.175999
  0
VERTEX
  8
0
  6
CONTINUOUS
 10
5.070904
 20
6.175999
  0
VERTEX
  8
0
  6
CONTINUOUS
 10
5.050327
 20
6.157292
  0
VERTEX
  8
0
  6
CONTINUOUS
 10
5.037700
 20
6.133441
  0
VERTEX
  8
0
  6
CONTINUOUS
 10
5.024605
 20
6.131103
  0
VERTEX
  8
0
  6
CONTINUOUS
 10
5.016187
 20
6.145601
  0
VERTEX
  8
0
  6
CONTINUOUS
 10
5.009640
 20
6.145133
  0
VERTEX
  8
0
  6
CONTINUOUS
 10
4.992336
 20
6.157292
  0
VERTEX
  8
0
  6
CONTINUOUS
 10
4.976903
 20
6.156357
  0
VERTEX
  8
0
  6
CONTINUOUS
 10
4.949311
 20
6.167113
  0
VERTEX
  8
0
  6
CONTINUOUS
 10
4.930604
 20
6.162904
  0
VERTEX
  8
0
  6
CONTINUOUS
 10
4.927798
 20
6.167113
  0
VERTEX
  8
0
  6
CONTINUOUS
 10
4.941828
 20
6.173661
  0
VERTEX
  8
0
  6
CONTINUOUS
 10
4.938087
 20
6.197979
  0
VERTEX
  8
0
  6
CONTINUOUS
 10
4.926395
 20
6.204527
  0
VERTEX
  8
0
  6
CONTINUOUS
 10
4.910494
 20
6.205930
  0
VERTEX
  8
0
  6
CONTINUOUS
 10
4.893191
 20
6.193303
  0
VERTEX
  8
0
  6
CONTINUOUS
 10
4.900673
 20
6.182546
  0
VERTEX
  8
0
  6
CONTINUOUS
 10
4.879161
 20
6.179273
  0
VERTEX
  8
0
  6
CONTINUOUS
 10
4.879161
 20
6.175064
  0
VERTEX
  8
0
  6
CONTINUOUS
 10
4.870743
 20
6.171322
  0
VERTEX
  8
0
  6
CONTINUOUS
 10
4.895062
 20
6.143262
  0
VERTEX
  8
0
  6
CONTINUOUS
 10
4.898335
 20
6.132038
  0
VERTEX
  8
0
  6
CONTINUOUS
 10
4.895062
 20
6.129700
  0
VERTEX
  8
0
  6
CONTINUOUS
 10
4.909091
 20
6.104446
  0
VERTEX
  8
0
  6
CONTINUOUS
 10
4.908156
 20
6.079660
  0
VERTEX
  8
0
  6
CONTINUOUS
 10
4.922186
 20
6.050665
  0
VERTEX
  8
0
  6
CONTINUOUS
 10
4.920315
 20
6.020266
  0
VERTEX
  8
0
  6
CONTINUOUS
 10
4.931072
 20
6.010445
  0
VERTEX
  8
0
  6
CONTINUOUS
 10
4.980177
 20
5.944504
  0
VERTEX
  8
0
  6
CONTINUOUS
 10
4.969420
 20
5.930474
  0
VERTEX
  8
0
  6
CONTINUOUS
 10
4.884305
 20
5.927201
  0
VERTEX
  8
0
  6
CONTINUOUS
 10
4.867002
 20
5.940295
  0
VERTEX
  8
0
  6
CONTINUOUS
 10
4.817897
 20
5.951052
  0
VERTEX
  8
0
  6
CONTINUOUS
 10
4.771130
 20
5.990336
  0
VERTEX
  8
0
  6
CONTINUOUS
 10
4.771130
 20
6.000157
  0
VERTEX
  8
0
  6
CONTINUOUS
 10
4.760841
 20
5.997351
  0
VERTEX
  8
0
  6
CONTINUOUS
 10
4.742135
 20
6.009042
  0
VERTEX
  8
0
  6
CONTINUOUS
 10
4.730443
 20
6.022137
  0
VERTEX
  8
0
  6
CONTINUOUS
 10
4.689288
 20
6.034764
  0
VERTEX
  8
0
  6
CONTINUOUS
 10
4.679467
 20
6.028217
  0
SEQEND
  8
0
  0
POLYLINE
  8
0
  6
CONTINUOUS
 66
     1
 40
0.009821
 41
0.009821
  0
VERTEX
  8
0
  6
CONTINUOUS
 10
5.069969
 20
6.131571
  0
VERTEX
  8
0
  6
CONTINUOUS
 10
5.069969
 20
6.144665
  0
VERTEX
  8
0
  6
CONTINUOUS
 10
5.118606
 20
6.198447
  0
VERTEX
  8
0
  6
CONTINUOUS
 10
5.147134
 20
6.181143
  0
VERTEX
  8
0
  6
CONTINUOUS
 10
5.145263
 20
6.166646
  0
VERTEX
  8
0
  6
CONTINUOUS
 10
5.128427
 20
6.144665
  0
VERTEX
  8
0
  6
CONTINUOUS
 10
5.068566
 20
6.131571
  0
VERTEX
  8
0
  6
CONTINUOUS
 10
5.069969
 20
6.131571
  0
SEQEND
  8
0
  0
POLYLINE
  8
0
  6
CONTINUOUS
 66
     1
 40
0.009821
 41
0.009821
  0
VERTEX
  8
0
  6
CONTINUOUS
 10
5.129362
 20
6.136247
  0
VERTEX
  8
0
  6
CONTINUOUS
 10
5.126556
 20
6.126426
  0
VERTEX
  8
0
  6
CONTINUOUS
 10
5.134974
 20
6.126426
  0
VERTEX
  8
0
  6
CONTINUOUS
 10
5.137780
 20
6.134377
  0
VERTEX
  8
0
  6
CONTINUOUS
 10
5.130765
 20
6.138118
  0
VERTEX
  8
0
  6
CONTINUOUS
 10
5.129362
 20
6.136247
  0
SEQEND
  8
0
  0
POLYLINE
  8
0
  6
CONTINUOUS
 66
     1
 40
0.009821
 41
0.009821
  0
VERTEX
  8
0
  6
CONTINUOUS
 10
5.322041
 20
5.788772
  0
VERTEX
  8
0
  6
CONTINUOUS
 10
5.266388
 20
5.808413
  0
VERTEX
  8
0
  6
CONTINUOUS
 10
5.240667
 20
5.844424
  0
VERTEX
  8
0
  6
CONTINUOUS
 10
5.242537
 20
5.870613
  0
VERTEX
  8
0
  6
CONTINUOUS
 10
5.226637
 20
5.896802
  0
VERTEX
  8
0
  6
CONTINUOUS
 10
5.177532
 20
5.895867
  0
VERTEX
  8
0
  6
CONTINUOUS
 10
5.151810
 20
5.896802
  0
VERTEX
  8
0
  6
CONTINUOUS
 10
5.119541
 20
5.922056
  0
VERTEX
  8
0
  6
CONTINUOUS
 10
5.112059
 20
5.959937
  0
VERTEX
  8
0
  6
CONTINUOUS
 10
5.119541
 20
5.981918
  0
VERTEX
  8
0
  6
CONTINUOUS
 10
5.150407
 20
6.012316
  0
VERTEX
  8
0
  6
CONTINUOUS
 10
5.186885
 20
6.021202
  0
VERTEX
  8
0
  6
CONTINUOUS
 10
5.192030
 20
6.012316
  0
VERTEX
  8
0
  6
CONTINUOUS
 10
5.213542
 20
6.012316
  0
VERTEX
  8
0
  6
CONTINUOUS
 10
5.214945
 20
6.017928
  0
VERTEX
  8
0
  6
CONTINUOUS
 10
5.237393
 20
6.023072
  0
VERTEX
  8
0
  6
CONTINUOUS
 10
5.231781
 20
6.033829
  0
VERTEX
  8
0
  6
CONTINUOUS
 10
5.217751
 20
6.031958
  0
VERTEX
  8
0
  6
CONTINUOUS
 10
5.207462
 20
6.044585
  0
VERTEX
  8
0
  6
CONTINUOUS
 10
5.214010
 20
6.054406
  0
VERTEX
  8
0
  6
CONTINUOUS
 10
5.229910
 20
6.054406
  0
VERTEX
  8
0
  6
CONTINUOUS
 10
5.233184
 20
6.047859
  0
VERTEX
  8
0
  6
CONTINUOUS
 10
5.214010
 20
6.042714
  0
VERTEX
  8
0
  6
CONTINUOUS
 10
5.207462
 20
6.031958
  0
VERTEX
  8
0
  6
CONTINUOUS
 10
5.200915
 20
6.035232
  0
VERTEX
  8
0
  6
CONTINUOUS
 10
5.193433
 20
6.031958
  0
VERTEX
  8
0
  6
CONTINUOUS
 10
5.180806
 20
6.041311
  0
VERTEX
  8
0
  6
CONTINUOUS
 10
5.170049
 20
6.037102
  0
VERTEX
  8
0
  6
CONTINUOUS
 10
5.163502
 20
6.024008
  0
VERTEX
  8
0
  6
CONTINUOUS
 10
5.156019
 20
6.020734
  0
VERTEX
  8
0
  6
CONTINUOUS
 10
5.151343
 20
6.014654
  0
VERTEX
  8
0
  6
CONTINUOUS
 10
5.147601
 20
6.019799
  0
VERTEX
  8
0
  6
CONTINUOUS
 10
5.138716
 20
6.024475
  0
VERTEX
  8
0
  6
CONTINUOUS
 10
5.140586
 20
6.041779
  0
VERTEX
  8
0
  6
CONTINUOUS
 10
5.144328
 20
6.044585
  0
VERTEX
  8
0
  6
CONTINUOUS
 10
5.157890
 20
6.042714
  0
VERTEX
  8
0
  6
CONTINUOUS
 10
5.159293
 20
6.057680
  0
VERTEX
  8
0
  6
CONTINUOUS
 10
5.151810
 20
6.060018
  0
VERTEX
  8
0
  6
CONTINUOUS
 10
5.151810
 20
6.064227
  0
VERTEX
  8
0
  6
CONTINUOUS
 10
5.161164
 20
6.067501
  0
VERTEX
  8
0
  6
CONTINUOUS
 10
5.163502
 20
6.077322
  0
VERTEX
  8
0
  6
CONTINUOUS
 10
5.160228
 20
6.079660
  0
VERTEX
  8
0
  6
CONTINUOUS
 10
5.157890
 20
6.095093
  0
VERTEX
  8
0
  6
CONTINUOUS
 10
5.154616
 20
6.091819
  0
VERTEX
  8
0
  6
CONTINUOUS
 10
5.151810
 20
6.079660
  0
VERTEX
  8
0
  6
CONTINUOUS
 10
5.145263
 20
6.077322
  0
VERTEX
  8
0
  6
CONTINUOUS
 10
5.146198
 20
6.083869
  0
VERTEX
  8
0
  6
CONTINUOUS
 10
5.151343
 20
6.087143
  0
VERTEX
  8
0
  6
CONTINUOUS
 10
5.155084
 20
6.079660
  0
VERTEX
  8
0
  6
CONTINUOUS
 10
5.151343
 20
6.068904
  0
VERTEX
  8
0
  6
CONTINUOUS
 10
5.170985
 20
6.077322
  0
VERTEX
  8
0
  6
CONTINUOUS
 10
5.174258
 20
6.091819
  0
VERTEX
  8
0
  6
CONTINUOUS
 10
5.170049
 20
6.090884
  0
VERTEX
  8
0
  6
CONTINUOUS
 10
5.168646
 20
6.098366
  0
VERTEX
  8
0
  6
CONTINUOUS
 10
5.173791
 20
6.114267
  0
VERTEX
  8
0
  6
CONTINUOUS
 10
5.173791
 20
6.124556
  0
VERTEX
  8
0
  6
CONTINUOUS
 10
5.182676
 20
6.128765
  0
VERTEX
  8
0
  6
CONTINUOUS
 10
5.204189
 20
6.130635
  0
VERTEX
  8
0
  6
CONTINUOUS
 10
5.228507
 20
6.177870
  0
VERTEX
  8
0
  6
CONTINUOUS
 10
5.223363
 20
6.191900
  0
VERTEX
  8
0
  6
CONTINUOUS
 10
5.228507
 20
6.200318
  0
VERTEX
  8
0
  6
CONTINUOUS
 10
5.212607
 20
6.229781
  0
VERTEX
  8
0
  6
CONTINUOUS
 10
5.223363
 20
6.236328
  0
VERTEX
  8
0
  6
CONTINUOUS
 10
5.192030
 20
6.278886
  0
VERTEX
  8
0
  6
CONTINUOUS
 10
5.156955
 20
6.293851
  0
VERTEX
  8
0
  6
CONTINUOUS
 10
5.157890
 20
6.299463
  0
VERTEX
  8
0
  6
CONTINUOUS
 10
5.179403
 20
6.300398
  0
VERTEX
  8
0
  6
CONTINUOUS
 10
5.180338
 20
6.307413
  0
VERTEX
  8
0
  6
CONTINUOUS
 10
5.219154
 20
6.315831
  0
VERTEX
  8
0
  6
CONTINUOUS
 10
5.216816
 20
6.322379
  0
VERTEX
  8
0
  6
CONTINUOUS
 10
5.227572
 20
6.333603
  0
VERTEX
  8
0
  6
CONTINUOUS
 10
5.231781
 20
6.320040
  0
VERTEX
  8
0
  6
CONTINUOUS
 10
5.222428
 20
6.308349
  0
VERTEX
  8
0
  6
CONTINUOUS
 10
5.230846
 20
6.306946
  0
VERTEX
  8
0
  6
CONTINUOUS
 10
5.237393
 20
6.312558
  0
VERTEX
  8
0
  6
CONTINUOUS
 10
5.263115
 20
6.313961
  0
VERTEX
  8
0
  6
CONTINUOUS
 10
5.280418
 20
6.329861
  0
VERTEX
  8
0
  6
CONTINUOUS
 10
5.272936
 20
6.336876
  0
VERTEX
  8
0
  6
CONTINUOUS
 10
5.296319
 20
6.356986
  0
VERTEX
  8
0
  6
CONTINUOUS
 10
5.293045
 20
6.365872
  0
VERTEX
  8
0
  6
CONTINUOUS
 10
5.307075
 20
6.361663
  0
VERTEX
  8
0
  6
CONTINUOUS
 10
5.314558
 20
6.369145
  0
VERTEX
  8
0
  6
CONTINUOUS
 10
5.323911
 20
6.369145
  0
VERTEX
  8
0
  6
CONTINUOUS
 10
5.339344
 20
6.361663
  0
VERTEX
  8
0
  6
CONTINUOUS
 10
5.345424
 20
6.365872
  0
VERTEX
  8
0
  6
CONTINUOUS
 10
5.314558
 20
6.377096
  0
VERTEX
  8
0
  6
CONTINUOUS
 10
5.301463
 20
6.359324
  0
VERTEX
  8
0
  6
CONTINUOUS
 10
5.286498
 20
6.356986
  0
VERTEX
  8
0
  6
CONTINUOUS
 10
5.266388
 20
6.340618
  0
VERTEX
  8
0
  6
CONTINUOUS
 10
5.296319
 20
6.352777
  0
VERTEX
  8
0
  6
CONTINUOUS
 10
5.316429
 20
6.350906
  0
VERTEX
  8
0
  6
CONTINUOUS
 10
5.330459
 20
6.338747
  0
VERTEX
  8
0
  6
CONTINUOUS
 10
5.341215
 20
6.343891
  0
VERTEX
  8
0
  6
CONTINUOUS
 10
5.346827
 20
6.340618
  0
VERTEX
  8
0
  6
CONTINUOUS
 10
5.334200
 20
6.332667
  0
VERTEX
  8
0
  6
CONTINUOUS
 10
5.331862
 20
6.323314
  0
VERTEX
  8
0
  6
CONTINUOUS
 10
5.335135
 20
6.320508
  0
VERTEX
  8
0
  6
CONTINUOUS
 10
5.338877
 20
6.320508
  0
VERTEX
  8
0
  6
CONTINUOUS
 10
5.344956
 20
6.324717
  0
VERTEX
  8
0
  6
CONTINUOUS
 10
5.386579
 20
6.318170
  0
VERTEX
  8
0
  6
CONTINUOUS
 10
5.386579
 20
6.323782
  0
VERTEX
  8
0
  6
CONTINUOUS
 10
5.366001
 20
6.326588
  0
VERTEX
  8
0
  6
CONTINUOUS
 10
5.366001
 20
6.323314
  0
VERTEX
  8
0
  6
CONTINUOUS
 10
5.391255
 20
6.307413
  0
VERTEX
  8
0
  6
CONTINUOUS
 10
5.401544
 20
6.293851
  0
VERTEX
  8
0
  6
CONTINUOUS
 10
5.436619
 20
6.293851
  0
VERTEX
  8
0
  6
CONTINUOUS
 10
5.459067
 20
6.275612
  0
VERTEX
  8
0
  6
CONTINUOUS
 10
5.447375
 20
6.258308
  0
VERTEX
  8
0
  6
CONTINUOUS
 10
5.462341
 20
6.255970
  0
VERTEX
  8
0
  6
CONTINUOUS
 10
5.474032
 20
6.263920
  0
VERTEX
  8
0
  6
CONTINUOUS
 10
5.477306
 20
6.277950
  0
VERTEX
  8
0
  6
CONTINUOUS
 10
5.485724
 20
6.283095
  0
VERTEX
  8
0
  6
CONTINUOUS
 10
5.479644
 20
6.252696
  0
VERTEX
  8
0
  6
CONTINUOUS
 10
5.482918
 20
6.250358
  0
VERTEX
  8
0
  6
CONTINUOUS
 10
5.498818
 20
6.281224
  0
VERTEX
  8
0
  6
CONTINUOUS
 10
5.491336
 20
6.324717
  0
VERTEX
  8
0
  6
CONTINUOUS
 10
5.497883
 20
6.332200
  0
VERTEX
  8
0
  6
CONTINUOUS
 10
5.504430
 20
6.291045
  0
VERTEX
  8
0
  6
CONTINUOUS
 10
5.495545
 20
6.287304
  0
VERTEX
  8
0
  6
CONTINUOUS
 10
5.460470
 20
6.247084
  0
VERTEX
  8
0
  6
CONTINUOUS
 10
5.448778
 20
6.245214
  0
VERTEX
  8
0
  6
CONTINUOUS
 10
5.445037
 20
6.237731
  0
VERTEX
  8
0
  6
CONTINUOUS
 10
5.423992
 20
6.229781
  0
VERTEX
  8
0
  6
CONTINUOUS
 10
5.418380
 20
6.191900
  0
VERTEX
  8
0
  6
CONTINUOUS
 10
5.432410
 20
6.162437
  0
VERTEX
  8
0
  6
CONTINUOUS
 10
5.460470
 20
6.149342
  0
VERTEX
  8
0
  6
CONTINUOUS
 10
5.463744
 20
6.153551
  0
VERTEX
  8
0
  6
CONTINUOUS
 10
5.458132
 20
6.158228
  0
VERTEX
  8
0
  6
CONTINUOUS
 10
5.445505
 20
6.160098
  0
VERTEX
  8
0
  6
CONTINUOUS
 10
5.456261
 20
6.143730
  0
VERTEX
  8
0
  6
CONTINUOUS
 10
5.448778
 20
6.137183
  0
VERTEX
  8
0
  6
CONTINUOUS
 10
5.382837
 20
6.118008
  0
VERTEX
  8
0
  6
CONTINUOUS
 10
5.341215
 20
6.083869
  0
VERTEX
  8
0
  6
CONTINUOUS
 10
5.327653
 20
6.080128
  0
VERTEX
  8
0
  6
CONTINUOUS
 10
5.325314
 20
6.073113
  0
VERTEX
  8
0
  6
CONTINUOUS
 10
5.354310
 20
6.081063
  0
VERTEX
  8
0
  6
CONTINUOUS
 10
5.355245
 20
6.081998
  0
VERTEX
  8
0
  6
CONTINUOUS
 10
5.354310
 20
6.089481
  0
VERTEX
  8
0
  6
CONTINUOUS
 10
5.366937
 20
6.087610
  0
VERTEX
  8
0
  6
CONTINUOUS
 10
5.375355
 20
6.028684
  0
VERTEX
  8
0
  6
CONTINUOUS
 10
5.347762
 20
6.004833
  0
VERTEX
  8
0
  6
CONTINUOUS
 10
5.257503
 20
6.015590
  0
VERTEX
  8
0
  6
CONTINUOUS
 10
5.269662
 20
6.025411
  0
VERTEX
  8
0
  6
CONTINUOUS
 10
5.363663
 20
6.012784
  0
VERTEX
  8
0
  6
CONTINUOUS
 10
5.381902
 20
6.020266
  0
VERTEX
  8
0
  6
CONTINUOUS
 10
5.386579
 20
6.018863
  0
VERTEX
  8
0
  6
CONTINUOUS
 10
5.394061
 20
5.991739
  0
VERTEX
  8
0
  6
CONTINUOUS
 10
5.392658
 20
5.953390
  0
VERTEX
  8
0
  6
CONTINUOUS
 10
5.408559
 20
5.908026
  0
VERTEX
  8
0
  6
CONTINUOUS
 10
5.387514
 20
5.831329
  0
VERTEX
  8
0
  6
CONTINUOUS
 10
5.342618
 20
5.795319
  0
VERTEX
  8
0
  6
CONTINUOUS
 10
5.322041
 20
5.788772
  0
SEQEND
  8
0
  0
ENDSEC
  0
EOF
